Cifra da música: D7 - Nirvana

Esse cifra de Nirvana já foi acessado por 644 pessoas.

Comente

A música D7 fez muito sucesso quando foi gravada por Nirvana. Quer conhecer as demais músicas? Conheça as letras das músicas gravadas por Nirvana e aproveite.

Veja também o vídeo da música tocada.


Introdução:



|--------------------------------------------------|
|--------------------------------------------------|
|--------------------------------------------------|
|-------2-----------0-----------2-----------0------|
|----2-----2-----3-----3-----2-----2-----3-----3---|       
|-0-----------1-----------0-----------1---------...|



Na parte q o Kurt fala:

'Towards anti-social
Solo solo'

Ele toca:

      A5       D#5       A5      D#5
|-------------------------------------|
|------------444444------------444444-|
|---222222---333333---222222---333333-|
|---222222---111111---222222---111111-|
|---000000---000000---000000---000000-|
|---000000---xxxxxx---000000---xxxxxx-|



Depois volta pro dedilhado inicial e quando chega a parte 'Gonna leave this region
They'll take me with them'

Ele repete a parte acima ( A5/D#5/A5/D#5)
E volta pro dedilhado inicial com uma pequena modificaçao no final: (Em5)


|-------------------------------------------------|
|-------------------------------------------------|
|-------------------------------------------------|
|-------2-----------0-----------2----------0----2-|
|----2-----2-----3-----3-----2-----2-----3---3--2-|
|-0-----------1-----------0-----------1---------0-|


Depois ele da uma pequena pausa e entra uma parte mais paulada q é :

Em5/F5/G5 (2x) /A5/Bb5/C5 (2x) 

* Na parte do Em5 ele da 4 palhetadas, a primera normal as 2 seguintes abafadas e a otra normal e vai pro F5  G5, O mesmo acontece com o A5...

Solo da musica:

|-------------------------------------------------------------|
|-------------------------------------------------------------|
|----9~---9-7------9~--9-7-----------12-12-12-12-11/12-12-12--|
|-------------7-9----------7-9-----9/12-12-12-12-11/12-12-12--|
|-------------------------------------------------------------|       
|-------------------------------------------------------------|

(essas pegadas no final do solo nas cordas 3 e 4, o kurt toca varias vezes bem rapido)

A musica termina em Em5





Cançao composta pelos The Wipers gravada para o compacto lançado somente na australia e no japao 'Hormoaning'



                    D7  (Dimension 7) - 


   
Straight as an arrow
Defect defect
Not straight, not so straight
Reject reject
Towards anti-social
Solo solo
Standing on the stairs
Cold, cold morning
Ghostly image of fear
Mayday mayday
Gonna leave this region
They'll take me with them

Dimension seven




Qualquer duvida escreva-me




Quer fazer uma correção nesta cifra?







    Comentários (0) Postar um Comentário

    Nenhum comentário encontrado. Seja o primeiro!