Cifra da música: Michelle - Beatles

Esse cifra de Beatles já foi acessado por 2058 pessoas.

Comente

A música Michelle fez muito sucesso quando foi gravada por Beatles. Quer conhecer a letra dela? Veja a letra de Michelle e cante.

Veja também o vídeo da música tocada.


Riff 1

e|-----8----8----8----8---8--6--------------|
B|-----9----9----9----9--------9-8----------|
G|--10----9----8----7---6-------------------|
D|------------------------------------------|
A|------------------------------------------|
E|------------------------------------------|


F       Bbm7          
Michelle,   ma belle  
Eb6                  Dº          C    G7/9  C 
These are words that go together well, my Michelle

F       Bbm7          
Michelle,   ma belle, 
Eb6              Dº        G7/9   C       G7/9        C
Sontles mots qui vont tres bien ensemble, tres bien ensemble
 
  Fm                                Ab7                  Db
I love you, I love you, I love you, that's all I want to say
  C7                  Fm 
Until I find a way 
       riff 1                         Bbm/F        C     
I will say the only words I know that you'll understand.
 
F       Bbm7          
Michelle,   ma belle, 
Eb6              Dº        G7/9   C       G7/9        C
Sontles mots qui vont tres bien ensemble, tres bien ensemble
 
  Fm                                Ab7                Db
I need you, I need you, I need you, I need to make you see
   C7               Fm 
Oh what you mean to me
  Fm    riff 1                 Bbm/F       C     
Until I do I'm hoping you will know what I mean

F          Bbm7     Eb6   Dº  C  G7/9  C
I love youuuuuuuuuuuuuu   (solo)

solo:
   F             Bbm7    Eb6          Dº        C       G7/9  
e|-------------------------------------------------------------
B|-------------------------------------------------------------
G|-----------3-5-6--6/1--0--0-1-3-----------------------1-------
D|-3--3-5-7------------------------1--3--3-5-6--0--2--0---3-2----
A|--------------------------------------------------------------
E|-------------------------------------------------------------
     C
e|-------------------------------
B|---------------------------------
G|-----------0-1-------------------
D|-----0-2-3---------------------
A|---3----------------------------
E|-------------------------------


  Fm                                Ab7                 Db
I want you, I want you, I want you, I think you know by now
C7                  Fm 
I'll get to you somehow
  Fm    riff 1                Bbm/F        C     
Until I do I'm telling you so you'll understand
 
F       Bbm7        
Michelle,  ma belle 
Eb6               Dº        G7/9   C       G7/9        C   
Sont les mots qui vont tres bien ensemble, tres bien ensemble
       riff 1                                      C          F  (solo)    
I will say the only words I know that you'll understand, my Michelle
 
(repete o solo 2x)








Quer fazer uma correção nesta cifra?








    Comentários (0) Postar um Comentário

    Nenhum comentário encontrado. Seja o primeiro!