Cifra da música: Here Comes The Sun - Beatles

Esse cifra de Beatles já foi acessado por 2480 pessoas.

Comente

A música Here Comes The Sun fez muito sucesso quando foi gravada por Beatles. Quer conhecer a letra dela? Veja a letra de Here Comes The Sun e cante.

Veja também o vídeo da música tocada.


------- I N T R O -------

   D  Dsus2 D                  Dsus2         G             G6    G
|--2-----0--2--------|-------2--0----------------|---------0-----------0--|
|--3--3-----------3--|-----------------3-----0---|---3-----0-----3-----0--|
|--2--------------2--|-----------------2-----0---|---0-----0-----0-----0--|
|--0-----------0-----|-0--0---------0--------0---|---------0-----0-----0--|
|--------------------|-----------------------2---|------2--2--2--2--2-----|
|--------------------|--------------------0--3---|-3-------3-----3--------|

 A7 A7sus2 A7 A7sus4     A     D      Dsus2 D
|------------------0--------|------2-----0--2------|
|-2--0----2--3-----------2--|------3--3---------3--|
|-0-------0-----0--------2--|------2---------------|
|-2-------2-----2-----2--2--|--0---0---------------|
|-0-------0-----0-----------|----------------------|
|---------------------------|----------------------|

             Dsus2      G    Gmaj7    G6  G/B       A7
|--------2--0--------------|-----2-----0------------------||
|-----------------3-----0--|-----0------------3-----2-----||
|-----------------------0--|-----0------------0-----0-----|| (rest)
|--0--0--------0--------0--|-----0------------0-----2-----||
|-----------------------2--|-----2---------2--2--0--0-----||
|--------------------0--3--|--3--3--3---------------------||

------ R E F R Ã O -------

D     Dsus2 D              Dsus2   D   G    Gmaj7 G6  Gmaj7 E7
 Here comes the sun    doo doo doo doo       Here comes the sun
|--2--0-----2-------|----2------0--2------|----2--0-----2---------|
|---------------3---|-------3----------0--|-----------------3-----|
|-------------------|---------------------|-----------------------|
|-------------------|---------------------|-----------------------|
|-------------------|---------------------|-----------------------|
|-------------------|---------------------|-----------------------|

                        D      Dsus2  D
       and I___ say_     'It's  al-  right.'
|--------------------|----2-----0---------------|
|--3--3----3-----3---|----------------3---------|
|--------------------|----------------------2---|
|--------------------|--0----0-----0-----0------|
|--------------------|--------------------------|
|--------------------|--------------------------|


|-------0--------0--------|--0--------0-------------||
|----3--------3--------3--|--------3-----32--------||
|-4--------2--------0-----|-----2-------------42---||
|-------------------------|-------------------------||
|-------------------------|-------------------------||
|-------------------------|-------------------------||

-------- E S T R O F E S    1 e 2 ---------

D      Dsus2 D          D      Dsus2    G           G6    G
   Little darling,     it's been   a    long  cold  lone  ly  wint-
|--2------0--2------|-------2--0-----------|---------0------------|
|-----3----------3--|-(3)----------3----0--|------3-------3---0---|
|-------------------|----------------------|----------------------|
|-------------------|----------------------|----------------------|
|-------------------|----------------------|----------------------|
|-------------------|----------------------|----------------------|

A7  A7sus2 A7 A7sus4 A7    D  Dsus2   D                 Dsus2       G
       ter                     Little  darling,       it seems  like years
|-------------------0------|----2--2--0--2------|-------2--0-------------|
|-2---0----2--3---------2--|-----------------3--|--(3)---------3----0----|
|--------------------------|--------------------|------------------------|
|--------------------------|--------------------|------------------------|
|--------------------------|--------------------|------------------------|
|--------------------------|--------------------|------------------------|

          G6    G     A7            A7sus4
     since its  been  clear
|-2--------0-------------|-----------------------||
|---------------3-----2--|---2--2---3--3--3--3---||
|------------------------|-----------------------||
|------------------------|-----------------------||
|------------------------|-----------------------||
|------------------------|-----------------------||

--------- S O L O / P O N T E ----------

 D     Dsus2 A7sus2 A7 A7sus2 A7         
|--2----0--2-----|----------------0-----|
|-----3-------0--|--2--0---2--3------2--|
|----------------|----------------------|
|----------------|----------------------|
|----------------|----------------------|
|----------------|----------------------|

Repetir esse trecho:

2x (tudo)
4x (sem os dois primeiros compassos)

   A7     A           F          C           G                  D
                      Sun,        sun,        sun,    here it    comes.           
|-------|---------|-----------|-----------|-----------------|--------------|
|-2--2--|---------|--------1--|-----------|-----------------|--------------|
|-------|---------|-----2-----|--------0--|--------0--------|-----(rest)---|
|-------|------2--|--3--------|-----2-----|-----0-----------|--0-----------|
|-------|0--4-----|-----------|--3--------|--2-----------2--|--------------|
|-------|---------|-----------|-----------|-----------3-----|--------------|

   A7         A7sus2 A7 A7sus4         A7 A7sus4 A7         A7sus4 A7 A
|--------------------------|---------------------0--|--0--0--0-----0--5---|
|--2----2---2--2--0--2--3--|----3--3---3--2--3------|-----------3---------|
|--------------------------|------------------------|---------------------|
|--------------------------|------------------------|---------------------|
|--------------------------|------------------------|---------------------|
|--------------------------|------------------------|---------------------|

|--5--5--5--5----5--||
|-------------------||
|-------------------||
|-------------------||
|-------------------||
|-------------------||

----------------  3ª    E S T R O F E ----------------

D      Dsus2 D                 Dsus2    G           G6    G
   Little darling,      I   feel   that ice      is slow  ly  melt 
|--2------0--2------|-------2--0-----------|---------0------------|
|-----3----------3--|--------------3----0--|--(0)-3-------3---0---|
|-------------------|----2-----------------|----------------------|
|-------------------|----------------------|----------------------|
|-------------------|----------------------|----------------------|
|-------------------|----------------------|----------------------|

A7  A7sus2 A7 A7sus4 A7    D  Dsus2   D                 Dsus2       G
      ing                     Lit-tle darling,       it seems  like years
|-------------------0------|----2-----0--2------|-------2--0-------------|
|--2--0----2--3---------3--|-------3---------3--|--------------3----2----|
|--------------------------|--------------------|---2--------------------|
|--------------------------|--------------------|------------------------|
|--------------------------|--------------------|------------------------|
|--------------------------|--------------------|------------------------|

   Gmaj7  G6    G     A7            A7sus4
     since its  been  clear
|-2--------0-------------|-----------------------||
|---------------3-----2--|-0-2--2---3--3--3--3---||
|------------------------|-----------------------||
|------------------------|-----------------------||
|------------------------|-----------------------||
|------------------------|-----------------------||

----------- E N C E R R A M E N T O -------------
                                                                       D/A
|-------0--------0--------0------------|--------------------------|-----2-|
|----3--------3--------3------32------|--------1-----------------|-----3-|
|-4--------2--------0--------------42-|-----2----------0-------0-|-----2-|
|--------------------------------------|--0----------2-------0----|-----0-|
|--------------------------------------|----------3-------2-------|---2-0-|
|--------------------------------------|--------------------------|-3-----|




-------- L E T R A S    A D I C I O N A I S ----------

Here comes the sun, here comes the sun,
and I say it's all right

Little darling, it's been a long cold lonely winter
Little darling, it feels like years since it's been here
Here comes the sun, here comes the sun
and I say it's all right

Little darling, the smiles returning to the faces
Little darling, it seems like years since it's been here
Here comes the sun, here comes the sun
and I say it's all right

Sun, sun, sun, here it comes...
Sun, sun, sun, here it comes...
Sun, sun, sun, here it comes...
Sun, sun, sun, here it comes...
Sun, sun, sun, here it comes...

Little darling, I feel that ice is slowly melting
Little darling, it seems like years since it's been clear
Here comes the sun, here comes the sun,
and I say it's all right
It's all right


Quer fazer uma correção nesta cifra?







    Comentários (0) Postar um Comentário

    Nenhum comentário encontrado. Seja o primeiro!