Cifra da música: In My Life - Beatles

Esse cifra de Beatles já foi acessado por 2770 pessoas.

4.00 / 5 - 2
Comente

A música In My Life fez muito sucesso quando foi gravada por Beatles. Quer conhecer a letra dela? Veja a letra de In My Life e cante.

Veja também o vídeo da música tocada.


In My Life - The Beatles
Introd.:( A  E )
           A      E     F#m    (A7/G)     
There are places I'll remember    
       D   Dm         A
all my li--ife though some have changed
        A     E       F#m   (A7/G)           
Some forever not for better,    
          D   Dm       A
some have go--one and some remain
          F#m               D             
All these places had their moments, 
      G                     A
with lovers and friends I still can recall
         F#m                B         
Some are dead and some are living, 
   Dm            A             ( A  E )
In my life I've loved them all

       A          E          F#m    (A7/G)           
But of all these friends and lovers,   
         D  Dm      A
There is no one compares with you
           A        E         F#m     (A7/G)
And these memories lose their meaning,   
       D        Dm       A
When I think of love as something new
         F#m                     D            
Though I know I'll never lose affection 
     G                      A
For people and things that went before
  F#m                              B           
I know I'll often stop and think about them  
   Dm            A
In my life I'll love you more

( A  E  F#m A7/G D Dm A) 2x

         F#m                     D           
Though I know I'll never lose affection 
     G                      A
For people and things that went before
   F#m                             B            
I know I'll often stop and think about them 
   Dm            A            ( A  E )
In my life I'll love you more
   Dm                     A    E  A.
In my life I'll love you more

 
 
Riff de Abertura     

|-----5-------------|
|----------------9--|
|--6-----6h7--9-----|
|-------------------|
|-------------------|
|-------------------|

Riff de Encerramento

|-----5-------------------------5--|
|----------------9----9--7-9----5--|
|--6-----6h7--9-------7---------6--|
|---------------------9---------7--|
|---------------------7------------|
|----------------------------------|

Solo de Teclado 'convertido' para Guitarra

|------------9-----12p10--12----------------------9p7--9---10--12--15--|
|-----10h12----10-------------12-----12---7h9/10-----------------------|
|---------------------------------9------------------------------------|
|----------------------------------------------------------------------|
|--0-------------------------------------------------------------------|
|----------------------------------------------------------------------|


|-14-12-14----14----14----13p12--13-------12-10-12-9-12----12----12p10-|
|----------15----14----12-----------15-12---------------12----10-------|
|----------------------------------------------------------------------|
|----------------------------------------------------------------------|
|----------------------------------------------------------------------|
|----------------------------------------------------------------------|


|-12-9------12--9h10h12--9-------------------------------|
|-------12-----------------10---9---10p9p7---------------|
|-----------------------------9-------------9p7p6--------|
|---------------------------------------------------9p7--|
|--------------------------------------------------------|
|--------------------------------------------------------|




Quer fazer uma correção nesta cifra?







    Comentários (0) Postar um Comentário

    Nenhum comentário encontrado. Seja o primeiro!