Cifra da música: Yesterday (Solo) - Beatles

Esse cifra de Beatles já foi acessado por 3323 pessoas.

5.00 / 5 - 1
Comente

A música Yesterday (Solo) fez muito sucesso quando foi gravada por Beatles. Quer conhecer as demais músicas? Conheça as letras das músicas gravadas por Beatles e aproveite.

Veja também o vídeo da música tocada.


Versão 1
-======-

1ª Parte:
e|--------------0-1-0------------------------------------------|
B|--------0-2-3-------3-3---3-3-1------------------------------|
G|-0-----2------------------------3-2-0---3-2-2-0---2-0-----2-2|
D|---3-3------------------------------------------3-----0-3----|
A|-------------------------------------------------------------|
E|-------------------------------------------------------------|

2ª Parte:
e|-------0-1-0------0----0-1|
B|-----3-------3------3-1---|
G|-2-2----------------------|
D|--------------------------|
A|--------------------------|
E|--------------------------|




__________________________________________________________________

Versão 2
-======-

30 43 43 32 20 22 23 10 11 10 23 23
23 23 21 33 32 30
33 32 32 30 43 32 30
40 43 32 32
30 43 43 32 20 22 23 10 11 10 23 23
23 23 21 33 32 30
33 32 32 30 43 32 30
40 43 32 32
32 32 23 10 11 10 23
10 23 21 23 32
32 32 23 10 11 10 23
10 23 21 10 11

© THIAGO CIFRAGENS





Quer fazer uma correção nesta cifra?







    Comentários (0) Postar um Comentário

    Nenhum comentário encontrado. Seja o primeiro!