Cifra da música: While My Guitar Gently Weeps - Beatles

Esse cifra de Beatles já foi acessado por 2244 pessoas.

Comente

A música While My Guitar Gently Weeps fez muito sucesso quando foi gravada por Beatles. Quer conhecer a letra dela? Veja a letra de While My Guitar Gently Weeps e cante.

Veja também o vídeo da música tocada.


Intro:
E|-------------------------------10------10-12-------10-------10-------10------------------------
B|-10-(21 veses)---12-12--13-13-------13-------13-------12-------10---------------9--------------
G|------------------------------------------------14-------12-------11-----9---------------------
D|---------------------------------------------------------------------------9/11----------------
A|-----------------------------------------------------------------------------------------------
E|-----------------------------------------------------------------------------------------------

weeps...
E|----------------------------|-----------------------|--------------8-5-|------8-8---5-5-5-------
B|----------------------------|-----------10-8--------|-------10-10------|-8-10-----8-------5-----
G|-17-17-1716-14-14h16p14----|-7/9--7/9--------9-7-6-|-7/9-9------------|--------------------7-5-
D|-------------------------14-|-----------------------|------------------|------------------------
A|----------------------------|-----------------------|------------------|------------------------
E|----------------------------|-----------------------|------------------|------------------------

Solo:
E|----------------------12--------------------------------------------12-10----12--15---------17--
B|-131210----10-12-13----13-10------10-13-13-----10-13-13-----10-13-------13---------15-13------
G|----------12---------------------12-----------12-----------12-----------------------------------
D|------------------------------------------------------------------------------------------------
A|------------------------------------------------------------------------------------------------
E|------------------------------------------------------------------------------------------------

E|-17-17--1715-17-----------17---------------15--------------------------------------------------
B|------------------17-15-17----17---15----17----17-----13-12-10-12-13-13------8------------------
G|--------------------------------------17----------17---------------------7-9---9-7-7----7-------
D|-------------------------------------------------------------------------------------10---10----
A|------------------------------------------------------------------------------------------------
E|------------------------------------------------------------------------------------------------
							Solo final:
E|----------------------------------17-15----17-15-17---|----------------------------------10-8---
B|----------------------15-17-17-17-------17------------|----------------10-10---10---10----------
G|-------------14-16-17---------------------------------|-7/9-(13 vezes)-------9----9----9--------
D|----14-15-17------------------------------------------|-----------------------------------------
A|-17---------------------------------------------------|-----------------------------------------
E|------------------------------------------------------|-----------------------------------------

E|--------------------------10--10-8-10-8-10-8-------------------------------------------17----17-
B|-10-------------------------------------------10-13-13-10----10-13-13--10/13--15/17-17----17----
G|----9-7---------------------------------------------------12------------------------------------
D|--------10--------10--10------------------------------------------------------------------------
A|------------10-12-------------------------------------------------------------------------------
E|------------------------------------------------------------------------------------------------

E|--------------17...--
B|-17-15---------------
G|-------17-14---------
D|---------------------
A|---------------------
E|---------------------



[Intro:] Am Am/G Am4/F# F Am G D E7


   Am        Am/G         Am4/F#              F
I look at you all see the love there that's sleeping
 Am          G          D       E7
While my guitar gently weeps
   Am          Am/G       Am4/F#         F
I look at the floor and I see it needs sweeping
Am           G          C    E7
Still my guitar gently weeps

A            C#m F#m     C#m
I don't know why nobody told you
Bm                  E7
how to unfold your love
A            C#m F#m           C#m
I don't know how  someone controlled you
Bm                    E7
They bought and sold you

I look at the world and I notice it's turning
While my guitar gently weeps
With every mistake we must surely be learning
Still my guitar gently weeps

I don't know how you were diverted
You were perverted too
I don't know how you were inverted
No one alerted you.





ACORDES:
Am/G=3x221x
Am4/F#=2x021x

_______________________________________________________
Contribuição: Pedro Henrique Mauricio Carneiro([email protected])
Correção: Sidney Ferreira ([email protected])


Quer fazer uma correção nesta cifra?







    Comentários (0) Postar um Comentário

    Nenhum comentário encontrado. Seja o primeiro!