Cifra da música: Come Together - Beatles

Esse cifra de Beatles já foi acessado por 2237 pessoas.

Comente

A música Come Together fez muito sucesso quando foi gravada por Beatles. Quer conhecer a letra dela? Veja a letra de Come Together e cante.

Veja também o vídeo da música tocada.


Beatles - Come together
=======================

Riff1 )
e------------------------
B------------------------
G-------------10~~~------
D-------------10~~~--12-
A-------10h12------------
E-10-10------------------

[Intro]
 Riff1         Riff1         Riff1         Riff1
Ssssh         Ssssh         Ssssh         Ssssh

D 'boogie'
e-----------------
B-----------------
G-----------------
D-7-7-9-9-7-7-9-9-
A-5-5-5-5-5-5-5-5-
E-----------------

A 'boogie'
e-----------------
B-----------------
G-----------------
D-----------------
A-7-7-9-9-7-7-9-9-
E-5-5-5-5-5-5-5-5-

D
 Here come old_ flat top, He come   groo__ving up slowly,
D
 He got_   Joo__ Joo__ eyeball, He one    ho__ly roller
           A
 He got    Hair_  down_    to_ his_ knee_;  
G                             [nc]
Got to be a joker, he just do what he please.

 Riff1         Riff1         Riff1         Riff1
Ssssh         Ssssh         Ssssh         Ssssh
D
 He wear no shoe_ shine_, he got    toe__ jam__ football
D
 He got_     mon__key__ finger, he shoot_    co__-ca__ co__la__
          A 
 He say, 'I__ know__ you__,     you__ know__ me__.'  
G                      [nc]
One thing I can tell you is you got to be free__

[Chorus]
         Bm         A       G     A [nc]
Come__ together___, Right__ now___,     over me

              Ssssh         Ssssh         Ssssh
 Riff1         Riff1         Riff1         Riff1
D
 He bag production__, He got    wal__rus__  gum__boot_
D
 He got   O__ no__ sideboard,  He one_    spi__nal__ crack__er__
          A
 He got   feet__    down__ be__low__ his__ knee__
G                                    [nc]
 Hold you in his armchair, you can feel his disease

[Repeat Chorus]

              Ssssh    RIGHT!
 Riff1         Riff1

[Solo]
D             D             A             A          Riff1         Riff1
                        Come

Solo 'Come'
e-15h17~---15h17-15h17p15-13--15h17~--15h17~---15h17-15h17p15-13-12~-
B--------------------------------------------------------------------
G--------------------------------------------------------------------
D--------------------------------------------------------------------
A--------------------------------------------------------------------
E--------------------------------------------------------------------
  A

e-12-12---------17~-
B-------15--13------
G-------------------
D-------------------
A-------------------
E-------------------

D
 He roller_ coaster, he got_     ear__ly__  war__ning__
D
 He got_     mud__dy__ water, He one     Mo__jo__ fil__ter__
         A
He say, 'One___ and one___ and one___ is three__.'
G                                 [nc]
Got to be good looking 'cause he's so hard to see 

[Repeat Chorus]

              Ssssh         Ssssh         Ssssh    OOOH!!
 Riff1         Riff1         Riff1         Riff1

[Outro]
D                     D 
                        Come together  yeah
D                     D
  Come together  yeah   Come together  yeah
D                     D
  Come together  yeah   Come together  YEAH_
D                        D
  Come together  yeah___   Come together  yeah___
D                        D
  Aaaaaaaaaahhh            Come together  yeah

Fade out..

Outro
-----------13(15)-13(15)13-10----------------------------------
-13(15)~----------------------13(15)~------------------13(15)~-
---------------------------------------10-12(14)12-10----------
---------------------------------------------------------------
---------------------------------------------------------------
---------------------------------------------------------------

-10-13(15)13-10--------------------------15(17)~---15(17)-15(17)15-15(17)~-
----------------13(15)~---10-13(15)13-10-----------------------------------
---------------------------------------------------------------------------
---------------------------------------------------------------------------
---------------------------------------------------------------------------
---------------------------------------------------------------------------

-17-20(22)20-17-20(22)~---17-20(22)20-17-20(22)~---15(17)-15(17)15-15(17)~-
---------------------------------------------------------------------------
---------------------------------------------------------------------------
---------------------------------------------------------------------------
---------------------------------------------------------------------------
---------------------------------------------------------------------------

---------------------------13(15)-13(15)13-10---------
----------------13(15)~-----------------------13(15)~-
-10-12(14)12-10---------------------------------------
------------------------------------------------------
------------------------------------------------------
------------------------------------------------------

Chords:
D  xx0232
A  x02220
G  320033
Bm x24432
solo:
Frases que seguem do baixo e da guitarra solo
Verses : (Bass)
g-----------------------------------------------------|
d-----------------------------------------------------|
a--5--5~~--0~h5~8~~-5~--3~~--5--5~~--0~h5~8~~-5~--3~~-|
e-----------------------------------------------------|

g--------------------------------------|
d--------------------------------------|
a--5--5~~--0~h5~8~~--(8)h10-(8)h10-8~/-|
e--------------------------------------|

Chorus : (Guitar)
e-------------------------------------------------|
b-------------------------------------------------|
g------------4-4-4-4-4-4-4-4----------------------|
d------------4-4-4-4-4-4-4-4-5-5-5-5---5~/7-------|
a------------2-2-2-2-2-2-2-2-5-5-5-5---5~/7-------|
e----------------------------3-3-3-3~--3~/5-------|
  Come together 		            Over me.		

Solos :
 (2:02)
e----------------------------------------|
b----------------------------------------|
g-10-10-10-10-10-10-10-10-10--7~--5--7---|
d-10-10-10-10-10-10-10-10-10--7~--5--7---| 4x
a----------------------------------------|
e----------------------------------------|

  (2:13)
  guitar 1
    ^
e--15b~~------15b~--15b-r15-13--15b~~------------|
b------------------------------------------------|
g--12b~~------12b~--12b-r12-10--12b~~------------| 
d---^--------------------------------------------|
a-guitar-2---------------------------------------|
e------------------------------------------------|
 
  (2:19)     			     (2:23)	
e--15b~~--15b~--15b-r15--13--10~~----10b~~-10b-r10-|
b--------------------------------------------------|
g--12b~~--12b~--12b-r12--10-----------7b~~--7b-r7--|
d----------------------------12~~------------------|
a--------------------------------------------------|
e--------------------------------------------------|

e-8-10--15b~~~--|
b--------8b~~~--|
g-5-------------|
d---7-----------|
a---------------|
e---------------|

  (3:11) (guitar 2 out)
e--------------|-----13b--13b-r13-10-----------|
b--13b~~~~~----|---------------------13b~~~~~~-|
g--------------|-------------------------------|
d--------------|-------------------------------|
a--------------|-------------------------------|
e--------------|-------------------------------|

e--------------------------|--10--13b-r13-10---------|
b-----------------13b~~~---|-----------------13b~~~~-|
g--10--12b-r12-10----------|-------------------------|
d--------------------------|-------------------------|
a--------------------------|-------------------------|
e--------------------------|-------------------------|

e-----------------15b~~~--|--15b--15b-r15--13--15b~~~~-|
b-10--13b-r13-10----------|----------------------------|
g-------------------------|----------------------------|
d-------------------------|----------------------------|
a-------------------------|----------------------------|
e-------------------------|----------------------------|

       2x
e--17--20b--r20--17--20b~~~~-|------15b--r15-13-15b~~~-|
b----------------------------|---15--------------------|
g----------------------------|-------------------------|
d----------------------------|-------------------------|
a----------------------------|-------------------------|
e----------------------------|-------------------------|
   		
			     2x (	
e--------------------------|-13b--13b-r13-10---------|
b------------------13b~~~~-|-----------------13b~~~~-|
g--10--12b--r12-10---------|-------------------------|
d--------------------------|-------------------------|
a--------------------------|-------------------------|
e--------------------------|-------------------------|


________________________________________________________


Quer fazer uma correção nesta cifra?







    Comentários (0) Postar um Comentário

    Nenhum comentário encontrado. Seja o primeiro!