Cifra da música: Who Feels Love? - Oasis

Esse cifra de Oasis já foi acessado por 653 pessoas.

Comente

A música Who Feels Love? fez muito sucesso quando foi gravada por Oasis. Quer conhecer a letra dela? Veja a letra de Who Feels Love? e cante.

Veja também o vídeo da música tocada.


Autor: Noel Gallagher

[Nota: Foram feitas algumas correções nos acordes. 
Em relação a afinação da música, pode ser DADGBe ou DGDGBd, mas não faz muita diferença
se tocada na afinação normal.] 

Acordes
-------
G	(320033)
Bb6	(x10033)
Am7	(x02010)
Cadd9	(x32030)
G/B	(x20033)	


Verso 1
-------
G
Found what I lost inside
G
My spirit has been purified
G
Take a thorn from my pride and
G
Hand in hand we'll take a walk outside

Refrão
------
Bb6                                Am7
Thank you for the sun, the one that shines on everyone
    Cadd9       G/B
Who feels love
    Bb6                               Am7
Now there's a million years between my fantasies and fears
  
  G
I feel love

Verso 2
-------
G
Leaving all that I see
G
Now all my emotions fill the air I breathe

Refrão
------
Bb6                          Am7                        Cadd9       G/B
Now you understand hat this is not the promised land they spoke of
       Bb6                           Am7               G      
Theres nothing more to be if you could be the remedy who heals love

Ponte 
-----
e-------------------------------------
B------3-------3-------3------3-------
G----4---4---4---4---4---4--4---4-----
D--5-------3-------2-------0----------
A-------------------------------------
E-------------------------------------

(x3, até;)

e---------------------------------------------------------------------
B------3-------3-------3-------3-------3-------3-------3-------3------
G----4---4---4---4---4---4---4---4---4---4---4---4---4---4---4---4----
D--5-------3-------2-------2-------1-------1-------1-------1----------
A---------------------------------------------------------------------
E---------------------------------------------------------------------


Solo (em G Bb6 Am7)
----
e--------------------7-----8---
B--------------6--8-----8------
G--0--4--5--7------------------
D------------------------------
A------------------------------
E------------------------------

(x3)

Solo 2
------
e--------------13---------------   (muitas vezes..)
B-15^^^15-13-15---15-15-13-15-13

Refrão Final
------------
Bb6                                Am7
Thank you for the sun, the one that shines on everyone
    Cadd9       G/B
Who feels love
    Bb6                               Am7
Now there's a million years between my fantasies and fears
   Cadd9        G/B
I feel love
Bb6                                Am7
Thank you for the sun, the one that shines on everyone
    Cadd9       G/B
Who feels love
    Bb6                               Am7
Now there's a million years between my fantasies and fears
  G
I feel love

Termina com [Ponte]

Rafael Tosta
[email protected]


Quer fazer uma correção nesta cifra?







    Comentários (0) Postar um Comentário

    Nenhum comentário encontrado. Seja o primeiro!