Cifra da música: Supersonic - Oasis

Esse cifra de Oasis já foi acessado por 1189 pessoas.

Comente

A música Supersonic fez muito sucesso quando foi gravada por Oasis. Quer conhecer a letra dela? Veja a letra de Supersonic e cante.

Veja também o vídeo da música tocada.


Intro:

-------0---------------------
---------0-------------------
-----2-----2----------2------
---4---------4--0--2--1------       4x
-4-----------------0--2------
-----------------------------




         F#m          A  B
I need to be myself
         F#m          A  B
I can be no one else
     F#m                A       B
I'm feeling supersonic, give gin and tonic
F#m                     A          B
You can have it all but how much do you want it?
    F#m               A  B
You make me laugh
            F#m         A  B
Give me your autograph
      F#m                   A B
Can I ride with you in your BMW?
        F#m                 A         B
You can sail with me in my yellow submarine

            E
You need to find out
                                      F#m
'Cos no one's gonna tell you what I'm on about
            E
You need to find a way to what you wanna say
C#7
    But before tomorrow
     D         A         E        F#m
'Cos my friend said he'd take you home
   D         A      E     F#m
He sits in a corner all alone
D        A       E     F#m
He lives under a waterfall
D          A        E          F#m
Nobody can see him, nobody can ever hear him call

---------------------------------------
-12-(14)-12--10-12-10---------10-------
----------------------11-9-11----11-9--
---------------------------------------
---------------------------------------
---------------------------------------


----------------12---------------------------------
-12-(14)-12--10----12-(14)-12-10-------12p10-----10
----------------------------------9h11-------9h10--
---------------------------------------------------
---------------------------------------------------
---------------------------------------------------
tudo isso 2x... então:
--------------------------------12-----------------
-10---10-12-(14)-12--10-12-(14)----(14)-12-10------
-9-------------------------------------------------
---------------------------------------------------
---------------------------------------------------
---------------------------------------------------

            F#m          A  B
You need to be yourself
           F#m           A  B
You can be no one else
  F#m                            A         B
I know a girl called Elisa, she's into Alka Seltzer
    F#m                           A         B
She sniffs it through a cane in a supersonic train
    F#m                  A  B
She made me laugh
          F#m            A  B
I got her autograph
    F#m                   A      B
She done it with a doctor on a helicopter
       F#m                   A          B
She's sniffin in her tissue, sellin' the big issue

             E
She needs to find out
                                       F#m
'Cos no one is gonna tell you what I'm on about
             E
She needs to find a whay for what she wants to say
C#7
    But before tomorrow

     D         A         E        F#m
'Cos my friend said he'd take you home
   D         A      E     F#m
He sits in a corner all alone
D        A       E     F#m
He lives under a waterfall
D          A        E          F#m
Nobody can see him, nobody can ever hear him call

---------------------------------------
-12-(14)-12--10-12-10---------10-------
----------------------11-9-11----11-9--
---------------------------------------
---------------------------------------
---------------------------------------


----------------12---------------------------------
-12-(14)-12--10----12-(14)-12-10-------12p10-----10
----------------------------------9h11-------9h10--
---------------------------------------------------
---------------------------------------------------
---------------------------------------------------

---------------------------------------------------
-12-(14)-12--10---------10---------10---------10---
----------------11-9-11----11-9-11----11-9-11------
---------------------------------------------------
---------------------------------------------------
---------------------------------------------------

---------------------------------------------------
-12-12-12-12---------------------------------------
---------------------------------------------------
--------------------------2-2--------------2-2-2h4-
--------------12/2--0-2h4-----2h4-2-2--2h4---------
---------------------------------------------------

---------------------------------------------------
---------------------------------------------------
--------------2-4-(6)-4-2-4-2----------------------
--------2-2h4-----------------4--------2-2---------
-0-2h4--------------------------0-2h4------2h4-2-2-
---------------------------------------------------

---------------------------------------------------
-------------------------------5-------------------
------------------------2-4-(6)--4-----------------
-----2-2-2h4-------2-2h4---------------------------
-2h4---------0-2h4---------------------------------
---------------------------------------------------

-------------------------------12-(14)-12-10-------
-12-12-12-12-12-12-12-12-12-12---------------12-12-
---------------------------------------------------
---------------------------------------------------
---------------------------------------------------
---------------------------------------------------

--------9--9--9--9--9--9--9--9--9--9--12-(14)-12-10
-12-10--12-12-12-12-12-12-12-12-12-12--------------
---------------------------------------------------
---------------------------------------------------
---------------------------------------------------
---------------------------------------------------


------------12-(14)-12-10--------------------------
-12-12-12-10-------------12-12-(14)-12--10---------
-------------------------------------------12------
--------------------------------------------------
--------------------------------------------------
--------------------------------------------------

12-(14)-12-10----------------------12-(14)-12-10--
--------------12-12-(14)-12--10-------------------
--------------------------------12----------------
--------------------------------------------------
--------------------------------------------------
--------------------------------------------------

-12-12-(14)-12-10-12-(14)-12-10---10--------------
--------------------------------12--12-10-12-(14)-
--------------------------------------------------
--------------------------------------------------
--------------------------------------------------
--------------------------------------------------

--------------------------------------------------
-12-----------------------------------------------
---11---------------------------------------------
--------------------------------------------------
--------------------------------------------------
--------------------------------------------------



Quer fazer uma correção nesta cifra?







    Comentários (0) Postar um Comentário

    Nenhum comentário encontrado. Seja o primeiro!