Cifra da música: Don t Look Back In Anger - Oasis

Esse cifra de Oasis já foi acessado por 1759 pessoas.

Comente

A música Don t Look Back In Anger fez muito sucesso quando foi gravada por Oasis. Quer conhecer as demais músicas? Conheça as letras das músicas gravadas por Oasis e aproveite.

Veja também o vídeo da música tocada.


Versão 1
-======-

Acordes usados:
C(x32010)	G(320033)    Riff: e-----|-------|
G/B(x20033)	G#°(403430)        B-----|-------|
Am(x02210)	E(022100)          G-----|-------|
Fmaj7(133211)	Fm(133111)         D---7-|---5---|
                                   A---7-|---5---|
                                   E-5---|-3-----|
Intro: (x2)

  C		           Fmaj7		      
e-0-0-0-0-0-0-0-0-0-0-0-0--0-0-0-0-0-0-0-0-0-0-0-0
B-1-1-1-1-1-1-1-1-1-1-1-1--1-1-1-1-1-1-1-1-1-1-1-1
G-0-0-0-0-0-0-0-0-0-0-0-0--2-2-2-2-2-2-2-2-2-2-2-2
D-2-2-2-2-2-2-2-2-3-2-2-2--3-3-3-3-3-3-3-3-3-3-3-3
A-3-3-3-3-3-3-3-3-3-3-3-3--3-3-3-3-3-3-0-3-3-3-0-3
E-x-x-x-x-x-x-x-x-x-x-x-x--x-x-x-x-x-x-x-x-x-x-x-x
  * * * * * * * * * * * *  * * * * * * * * * * * *   

* Palhetada para baixo
     
Verso 1
-------
C               G/B              Am
Slip inside the eye of your mind
          E             Fmaj7
Don't you know you might find
G                   C   RIff
A better place to play
C               G/B         Am
You said that you'd never been
          E             Fmaj7
But all the things that you've seen
G               C   Riff
Slowly fade away

Ponte 1
-------
Fmaj7           Fm                 C
So I start a revolution from my bed
				
Fmaj7                    Fm                  C
Cos you said the brains I have went to my head
				      	
Fmaj7              Fm              C
Step outside the summertime's in bloom
G
Stand up beside the fireplace
G#°
Take that look from off your face
Am                 G             F          G
Cos you ain't ever gonna burn my heart ouuuuuuuut
					
Refrão 1
--------
C   G/B        Am        E             Fmaj7
So Sally can wait, she knows it's too late
         G          C  Am G
As we're walking on by
C        G/B      Am   E               Fmaj7
Her soul slides away,    but don't look back in anger
  G         C  G/B  Am  E  Fmaj7  G  C  Riff
I heard you say
	    
Verso 2
-------
C		G/B		Am
Take me to the place where you go
E		Fmaj7  G		   C  Am G
Where nobody knows     If it's night or day
C	     G/B                  Am
Please don't put your life in the hands
E                  Fmaj7      G		     C         Riff	
Of a Rock and Roll band       Who'll throw it all away
         
Ponte 2
-------
Fmaj7          Fm                  C
Gonna start a revolution from my bed
				
Fmaj7                    Fm                  C
Cos you said the brains I have went to my head
			
Fmaj7              Fm              C
Step outside the summertime's in bloom
				
G
Stand up beside the fireplace
G#°
Take that look from off your face
Am                 G             F          G
Cos you ain't ever gonna burn my heart ouuuuuuuut
	

Refrão 2
--------
C   G/B        Am        E             Fmaj7
So Sally can wait, she knows it's too late
         G          C
As she's walking on by
C        G/B      Am   E          Fmaj7
My soul slides away,     but don't look back in anger
  G         C   Riff
I heard you say

Solo:Fmaj7, Fm, C, Fmaj7, Fm, C, Fmaj7, Fm, C, G, G#°, Am, G, Fmaj7, G
----
    

Refrão 1
--------
C   G/B        Am        E              Fmaj7
So Sally can wait, she knows it's too late
         G          C  Am G
As we're walking on by
C        G/B      Am   E          Fmaj7
Her soul slides away,    but don't look back in anger
	        
  G         C
I heard you say

Refrão 2
--------
C   G/B        Am        E             Fmaj7        G          C  Riff
So Sally can wait, she knows it's too late As she's walking on by

C        G/B      Am       
My soul slides awaaaaaaaay 

    Fmaj7 
But don't look back in anger
Fm
Don't look back in anger
            C  G/B  Am  E  Fmaj7  
I heard you say
 	
G                C
At least not today


            
______________






Versão 2
-======-

Escrita por : Noel Gallagher
Transcrita por: Heduardo Cordeiro

Acordes usados:
C       (x32010)	G   (320033)
C/B     (x20010)	G*  (430044)
Am      (x02210)	E   (022100)
Fmaj7   (133211)	Fm  (133111)

Intro: (x2)

  C		           Fmaj7		      
e-0-0-0-0-0-0-0-0-0-0-0-0--0-0-0-0-0-0-0-0-0-0-0-0
B-1-1-1-1-1-1-1-1-1-1-1-1--1-1-1-1-1-1-1-1-1-1-1-1
G-0-0-0-0-0-0-0-0-0-0-0-0--2-2-2-2-2-2-2-2-2-2-2-2
D-2-2-2-2-2-2-2-2-3-2-2-2--3-3-3-3-3-3-3-3-3-3-3-3
A-3-3-3-3-3-3-3-3-3-3-3-3--3-3-3-3-3-3-0-3-3-3-0-3
E-x-x-x-x-x-x-x-x-x-x-x-x--x-x-x-x-x-x-x-x-x-x-x-x
  * * * ^ ^ * ^ ^ * ^ * ^  * * ^ * ^ * ^ ^ * ^ * ^   

* Palhetada para baixo
^ Palhetada para cima     

Pode ser que eu  não tenha indicado direito o jeito 
correto das palhetadas mais é mais ou menos por aí.                        

Verso 1
-------
C               C/B              Am
Slip inside the eye of your mind
          E             Fmaj7
Don't you know you might find
G                   C   Am   G
A better place to play
C               C/B         Am
You said that you'd never been
          E             Fmaj7
But all the things that you've seen
G               C   Am   G
Slowly fade away

Ponte 1
-------
Fmaj7           Fm                 C
So I start a revolution from my bed
				e-----------------------------
				B-----------------------------
				G----5---5--------------------
				D----5h7-5-------5------------
				A------------5s7-----7s5--3---
				E-----------------------------

Fmaj7                    Fm                  C
Cos you said the brains I have went to my head
				      e----------------------
				      B----------------------
				      G-----------5-5-----5--
				      D-----------5-5-----5--
				      A---------------5h7----
				      E----------------------	
Fmaj7              Fm              C
Step outside the summertime's in bloom
				e------------------8-8---
				B------------------8-8---
				G--------------8h9-------
				D------------------------
				A------------------------
				E------------------------
G
Stand up beside the fireplace
G*
Take that look from off your face
Am                 G             F          G
Cos you ain't ever gonna burn my heart ouuuuuuuut
						e--------------------------
						B----------------5---------
						G--5---5--7--7b9---7p5--7--
						D--5h7-5-------------------
						A--------------------------
						E--------------------------
Refrão 1
--------
C   C/B        Am        E             Fmaj7
So Sally can wait, she knows it's too late
         G          C  Am G
As we're walking on by
C        C/B      Am   E               Fmaj7
Her soul slides away,    but don't look back in anger
  G         C  C/B  Am  E  Fmaj7  G  C  Am  G
I heard you say
	       e---------------------------------------------------------
	       B-----------------------------------8---------------------
	       G-----------5-7-7b9r7--5---5----7s9----b8r7--5--------5h7-
               D-------5h7--------------7------------------------5h7-----
	       A---------------------------------------------------------
 	       E---------------------------------------------------------
Verso 2
-------
G(cont...)  C		C/B		Am
           Take me to the place where you go
e-------------
B-------------
G-----5h7--5--
D-5h7---------
A-------------
E-------------

E		Fmaj7  G		   C  Am G
Where nobody knows     If it's night or day
	        e----------------------------------
	        B----------------------------------
	        G--5---5------------------5h7---5--
                D--5h7-5----------5---5h7----------
	        A---------5--5h7-------------------
	        E----------------------------------
G		   C  
If it's night or day
Am   G                    C	     C/B                  Am
                          Please don't put your life in the hands
         e-----------------------------------------------------------
	 B-----------------------------------------------------------
         G--7b9--7--5--7--5-------------------------------------5--5-
	 D--------------------------------------------------5h7------
	 A-----------------------------------------------------------
	 E-----------------------------------------------------------


E                  Fmaj7                  G		     C   Am G	
Of a Rock and Roll band                   Who'll throw it all away
         e-------------------------------------------------------        
	 B-------------------------------------------------------
         G---7-5--7b9--7--5--7--5--------------------5--5-----5--
	 D--------------------------------------5h7--------7-----
	 A-------------------------------------------------------
	 E-------------------------------------------------------
Ponte 2
-------
Fmaj7          Fm                  C
Gonna start a revolution from my bed
				e----------------8---------
				B----------------8---------
				G------------8h9--------5--
				D-----------------------5--
				A-------------------5h7----
				E--------------------------
Fmaj7                    Fm                  C
Cos you said the brains I have went to my head
				e---------------------------------------
				B------------------------5--------------
				G-------------------7b9-----7p5-----5---
				D--------------------------------7------
				A---------------------------------------
				E---------------------------------------
Fmaj7              Fm              C
Step outside the summertime's in bloom
				e--------8-8---------
				B--------8-8---------
				G----8h9-------------
				D--------------------
				A--------------------
				E--------------------
G
Stand up beside the fireplace
G*
Take that look from off your face
Am                 G             F          G
Cos you ain't ever gonna burn my heart ouuuuuuuut
						e-----------------------------------------5--------------------
						B--------------------------------------------------------------
						G--------5---7--5--7b9r7--5-----5--7--7b9----7--5--7--5--7--5--
						D---5h7----------------------7---------------------------------
						A--------------------------------------------------------------
						E--------------------------------------------------------------

Refrão 2
--------
C   C/B        Am        E             Fmaj7
So Sally can wait, she knows it's too late
         G          C
As she's walking on by
C        C/B      Am   E          Fmaj7
My soul slides away,     but don't look back in anger
  G         C   Am  G
I heard you say

Solo
----
    Fmaj7                  Fm                      C                       Fmaj7            Fm
e-----------------------------------------8-------------------------------------------------------
B-------------------------------------------------------------------------------------------------
G--7B-7B-7B----5-----------------5--5--7B----7-----5--7--5-----5-----------7B-7B-7B----5--5--5----
D--------------------5-----5--7-----------------------------7-----------------------------5--5P-7-
A-------------------------------------------------------------------------------------------------
E-------------------------------------------------------------------------------------------------
              C            Fmaj7                Fm                  C                          G
e-----------------------------------------------------------------------------------------8--8--8-
B--------------------------------------------------------------------------------8--8-10----------
G--5--------------------------------------------5--5--7B-7--5-----5--7/----9----------------------
D--5--------5-----------------------------5--7-----------------7----------------------------------
A-----5H-7-----7--5--3-----------3H-5/-7----------------------------------------------------------
E--------------------------3--5-------------------------------------------------------------------
                                                                     G*
e-10--8-----------8--------8-----------8-----------8--------8-----8H10--8--------8--------8-------
B-----------8H10-----8H10--------8H10-----8H10--------8H10-----------------8H10-----8H10----------
G-------------------------------------------------------------------------------------------------
D-------------------------------------------------------------------------------------------------
A-------------------------------------------------------------------------------------------------
E-------------------------------------------------------------------------------------------------
                          Am                          G          Fmaj7             G
e--------8--------8-------------------------------------------------------------------------------
B--8H10-----8H10----------17----17----17----17----------------------------17-17----17-17-17-17-17-
G-------------------------19B---19B---19B---19B---19B17----17----19B17----17-17----19B19B19B19B19B
D-------------------------------------------------------19-------------19-------------------------
A-------------------------------------------------------------------------------------------------
E-------------------------------------------------------------------------------------------------
                         
e-------------------------|
B-17-17-------------------|
G-19B19-------------------|
D-------------------------|
A-------------------------|
E-------------------------|

Refrão 1
--------
C   C/B        Am        E              Fmaj7
So Sally can wait, she knows it's too late
         G          C  Am G
As we're walking on by
C        C/B      Am   E          Fmaj7
Her soul slides away,    but don't look back in anger
			       e----------------------------------------------------------------------
			       B--------------------8--8-8----6--6--6---5-----------------------------
			       G--------------------9--9-9----7--7--7---5----7b9---7p5---5--5h7-5--5--
	                       D-------------------------------------------------------7--------------
			       A----------------------------------------------------------------------
	                       E----------------------------------------------------------------------
  G         C
I heard you say

Refrão 2
--------
C   C/B        Am        E             Fmaj7        G          C   Am G
So Sally can wait, she knows it's too late As she's walking on by
e----------------------------------------------------------------
B------5--5s9----------------5--5s9----------8--8--8----6-----5--
G-5--7--------------5--5--7------------------9--9--9----7-----5--
D----------------------------------------------------------------
A----------------------------------------------------------------
E----------------------------------------------------------------

                            C        C/B      Am       
                            My soul slides awaaaaaaaay 
e---------------------------------------------
B--6---5----8---------------8---------6p5--5--
G----5---5-----5--5---------------------------
D---------------------------------------------
A---------------------------------------------
E--------------------------------------------
    Fmaj7 
But don't look back in anger
Fm
Don't look back in anger
            C  C/B  Am  E  Fmaj7  
I heard you say
 	e--------------------------------------------------------------
	B--------------------------------------------------------------
	G---------------5-7--7b9r7--5-----5--7--5--7b9---7--5---5h7--5-
	D----------5h7-----------------7-------------------------------
	A-----5h7------------------------------------------------------
	E--------------------------------------------------------------
                  G                C
                   At least not today
e--------------------------0----------------
B--------------------------1----------------
G--------------------------0----------------
D--7--5------------5-------2----------------
A--------3-5-5s7---------7s3----------------
E-------------------------------------------


                          


Quer fazer uma correção nesta cifra?







    Comentários (0) Postar um Comentário

    Nenhum comentário encontrado. Seja o primeiro!