Cifra da música: Live Forever - Oasis

Esse cifra de Oasis já foi acessado por 1163 pessoas.

Comente

A música Live Forever fez muito sucesso quando foi gravada por Oasis. Quer conhecer a letra dela? Veja a letra de Live Forever e cante.

Veja também o vídeo da música tocada.


Escrita por Noel Gallagher

Transcrita por Heduardo Cordeiro


RIFF:

e---------------3--------------------------3----------
B-------1-----------1--------------1-----------1------
G----------0-----------0--------------0-------------0-
D---3--------------------------3----------------------
A-----------------------------------------------------
E-----------------------------------------------------

Acordes Usados:

G	(320033)	Fmaj7	(x33210)
Am7	(x02010)	A7sus4  (x02230)
C	(x32010)	Cadd9   (x32030)
D	(xx0232)	D5	(xx0230)
Em7     (022030) 

Intro
-----
e------------------------------------------------
B------------------------------------------------
G----------------------0--2B-0-------------------
D-------------0--0H-2----------------------------
A-------0H-2-------------------------------------
E-3----------------------------------------------

Verso 1
-------
G	       D
Maybe, I don't really wanna know
	 Am7
How your garden grows
C	     D
I just wanna fly

Verso 2
-------
G		D
Lately, did you ever feel the pain
       Am7
In the morning rain
      C		       D	 
As it soaks it to the bone

Refrão 1
--------
Em7		     A7sus4
  Maybe I just wanna fly
			   Cadd9
Wanna live I don't wanna die
		   G
Maybe I just wanna breathe
      A7sus4           Em7
Maybe I just don't believe
			 D5
Maybe you're the same as me
			    A7sus4
We see things they'll never see
			    Fmaj7 (RIFF)
You and I are gonna live forever

Verso 1
-------
G	       D
Maybe, I don't really wanna know
	 Am7
How your garden grows
C	     D
I just wanna fly

Verso 2
-------
G		D
Lately, did you ever feel the pain
       Am7
In the morning rain
      C		       D	 
As it soaks it to the bone

Refrão 2
--------
Em7		     A7sus4
 Maybe I'll never be
			   Cadd9
All the things I wanna be
		        G
Now is not the time to cry
      A7sus4                Em7
Now is the time to find out why
                           D5   
I think you're the same as me
			    A7sus4
We see things they'll never see
			    Fmaj7 (RIFF)
You and I are gonna live forever

Solo
----
        G		D			 Am7            C            D              G
e---------------------------------------------------------------------------------------------
B-------------------------------------------------------------------------------------------0-
G------12----14B12-------12-14----14B12----------12H14-12-------12-12-12-12-------12-12-----0-
D12-14-------------14-------------------14----------------14----12-14-12-12-12-12-12-14-----0-
A---------------------------------------------------------------------------14-12-------------
E---------------------------------------------------------------------------------------------
       	      D                Am7       C	     D          Em7                   A7sus4
e------------------------------------------------------------------------------------------------
B---------------------------------------------------------------17-17-17-17-17-17-17-15----15----
G------------12-14-------14B14-12-------12-12-12-12-12----------------------------------16----16-
D-9/12----14----------------------14----14-14-14-12-12-12-12-------------------------------------
A------------------------------------------------------14-12-------------------------------------
E------------------------------------------------------------------------------------------------
              Cadd9              G                            A7sus4		Em7        D5
e-----------------------------------------------------------------------------------------------
B--------------------------------------------------------------------------------12-12----------
G14-16-14-12-14-12----12---------14-12-14B14-12-14-12----------------12-14-12----14B14B---14-12-
D------------------14---------------------------------14-------12-14----------------------------
A--------------------------------------------------------12-14----------------------------------
E-----------------------------------------------------------------------------------------------
				 A7sus4 			                            Fmaj7
e------------------------15-17-17B15-------------------------------------------------------------
B------------------15-17-------------17----17-15----15----------------------------------------12-
G---12----14-14/16-------------------------------16----16-14-16-14-12-14-12----12-------------12-
D14-------------------------------------------------------------------------14----------12-14----
A---------------------------------------------------------------------------------12-14----------
E------------------------------------------------------------------------------------------------
 
e------------------------------------------------------------------------
B12-------------12-12-------------12----12-12----------------------------
G12-------------12-12-------------12----14B14B12P---12-------------------
D---------12-14-------------12-14----------------14----------------------
A---12----------------12-14----------------------------------------------
E------------------------------------------------------------------------
 
Verso 1
-------
Verso2
------
Refrão 1
-------

Fmaj7             (RIFF)
Gonna live forever
Fmaj7             (RIFF)
Gonna live forever
Fmaj7             (RIFF)
Gonna live forever
Am                  Fmaj7 
We're gonna live forever
Am                  Fmaj7 
We're gonna live forever
Am                  Fmaj7 
We're gonna live forever
Am                  Fmaj7 
We're gonna live forever

Acaba a canção com Am Fmaj7






Quer fazer uma correção nesta cifra?







    Comentários (0) Postar um Comentário

    Nenhum comentário encontrado. Seja o primeiro!