Cifra da música: Stop Crying Your Heart Out - Oasis

Esse cifra de Oasis já foi acessado por 1114 pessoas.

5.00 / 5 - 1
Comente

A música Stop Crying Your Heart Out fez muito sucesso quando foi gravada por Oasis. Quer conhecer a letra dela? Veja a letra de Stop Crying Your Heart Out e cante.

Veja também o vídeo da música tocada.


Acordes Bm          x24432
        D6/A        504430
        E           022100
	G           320033
	A/G         302220
	D           xx0232
        A           x02220
	Em          022000
        E           022100
	

Harmônica: Essa técnica é usada no fim da música. Para executar a 
hamônica você deve apenas encostar levemente o dedo na corda sobre o 
traste indicado e tocá-la... 

Riff
e|----2-0----2-0----2-0-----2-0-|
B|--3-------3-----3-----0-3-----|



     Bm
Hold up
    D6/A
Hold on
           E
Don't be scared
                            G            
You'll never change what’s been and gone

          Bm
May your smile
      D6/A
Shine on 
          E
Don't be scared
                  G             A7/G
Your destiny may keep you warm.


               D                  A 
Cos all of the stars are fading away
                 Em
Just try not to worry
                    G
You'll see them someday
               D                  E
Take what you need and be on your way
                     G  (Riff)       A7/G
And stop crying your heart out

    Bm
Get up
     D6/A
Come on
         E
Why you scared 
                           G             A7/G
You'll never change what's been and gone 



               D                  A 
Cos all of the stars are fading away
                 Em
Just try not to worry
                    G
You'll see them someday
               D                  E
Take what you need and be on your way
                     G (Riff)    A7/G
And stop crying your heart out
|

(Solo) D A Em  G   D E7 G Gm 
Riff por todo solo....

               D                  A 
Cos all of the stars are fading away
                 Em
Just try not to worry
                    G
You'll see them someday
               D                   A
Take what you need and be on your way
                      Em           G 
And stop crying your heart out

                      D
Where are all of the stars?
               A
We're fading away
                Em
Just try not worry
                  G
You'll see us someday
                    D                  A
Just take what you need and be on your way
                      Em     
And stop crying your heart Out
G                   Em     
  Stop crying your heart Out
G                   Em     
  Stop crying your heart Out
G                   Em           G (Riff)
  Stop crying your heart Out
Em G (4x)

Harmônica


   D       A         Em7      G         G6   
|--------12--------12--------12-----------12---|
|-----19--------19--------19----12-----19------|
|--19--------19--------19-----------19---------|
|----------------------------------------------|
|----------------------------------------------|
|----------------------------------------------|
   D     D9   A       Em7      G        G6       D  
|--------12--------12-------12----------12------------|
|-----19--------19-------19----12----19----12---------|
|--19--------19-------19----------19-------------19---|
|-----------------------------------------------------|
|-----------------------------------------------------|
|-----------------------------------------------------|

OU EM UMA VERSÃO PARA VIOLÃO, PODERÁ FAZER...


    D         A         Em          G            
|--------12--------12---------12-----------12---|
|-----7---------7----------7------12-----7------|
|--7--------7----------7--------------7---------|
|-----------------------------------------------|
|-----------------------------------------------|
|-----------------------------------------------|
    D        A          Em           G               D  
|--------12--------12-------12----------12---------|
|------7--------7--------7-----12----7-----12------|
|---7-------7---------7-----------7-------------7--|
|--------------------------------------------------|
|--------------------------------------------------|
|--------------------------------------------------|



Tá aí!! Uma bela canção do Oasis!! Pra Mim é a segunda melhor do 
disco.... A melhor pra mim é Little by Little...

Daniel Teixeira
                  Dúvidas? Sugestões? Erros?   [email protected]








Quer fazer uma correção nesta cifra?







    Comentários (0) Postar um Comentário

    Nenhum comentário encontrado. Seja o primeiro!