Cifra da música: Don´T Go Away - Oasis

Esse cifra de Oasis já foi acessado por 1630 pessoas.

Comente

A música Don´T Go Away fez muito sucesso quando foi gravada por Oasis. Quer conhecer a letra dela? Veja a letra de Don´T Go Away e cante.

Veja também o vídeo da música tocada.


Intro:(2x)                    
E|--------------------------------|
B|--------------------------------|
G|-----5h7~--b---/9--7-5-7-5------|
D|-5h7-------------------------7--|
A|--------------------------------|
E|--------------------------------|


E|----------------|**----|
B|----------------|------|
G|----------------|-5----|
D|-------------7--|---7--|
A|-7-7--7p5-p0----|------|
E|----------------|------|
  |*----*|         **Toca isso só na segunda vez
     *Abafado


Verso 1:
 Am                              G
A cold and frosty morning there's not a lot to say
          Fmaj7                    D
About the things caught in my mind
Am                        G
As the day was dawning my plain flew away
             Fmaj7                    D
With all the things caught in my mind

Ponte:
Riff#1(Toca isso praticamente em toda música)
E|--------------|
B|--------------|
G|------5-4--5--|
D|----5---------|
A|--------------|
E|--------------|

Dm(Riff#1)                         F
And I don't wanna be there when you're coming down
Dm(Riff#1)                             F           G
And I don't wanna be there when you hit the ground


Refrão:
            C                  G
So don't go away, say what you say
                    Am                  G
But say that you'll stay, forever and a day
                   F                       G
In the time of my life, cause I need more time
                Am             G           F
Yes I need more time just to make things right

Pequeno Solo:
E|-----------------------|
B|-5b~-------5b----------|
G|---------------5b--2b--|
D|-----------------------|
A|-----------------------|
E|-----------------------|

Verso 2:
Am                         G
Damn my situation and the games I have to play
             Fmaj7                   D
With all the things caught in my mind
Am                   G
Damn my education I can't find the words to say
          Fmaj7                    D
About the things caught in my mind

Bridge:
Dm(Riff#1)                            F
And I don't wanna be there when you're coming down
Dm(Riff#1)                           F             G
And I don't wanna be there when you hit the ground

Refrão:

                C                 G
So don't go away, say what you say
    ´                 Am                   G
But say that you'll stay, forever and a day
                   F                      G
In the time of my life cause I need more time
                Am             G           F
Yes I need more time just to make things right

Fm
Me and you what's going on

Solo 1
   C          G           Am
E|---------------------------|
B|---------------------------|
G|-----5----5-7b-5---5--5----|
D|-5h7----7--------7------7--|
A|---------------------------|
E|---------------------------|

F                             Fm
All we seem to know is how to show the feelings that are wrong

Solo 2  
   C                 G                    Am                         G                     F
E|-------------------------------8--10-8-------8----8-10-8------8-8------8----8-10-8------8--|
B|-------------------------8--10----------8-10---10--------8-10-----8-10---10--------8-10----|
G|-----5--5-7b-7b-5---5-9--------------------------------------------------------------------|
D|-5h7--------------7------------------------------------------------------------------------|
A|-------------------------------------------------------------------------------------------|
E|-------------------------------------------------------------------------------------------|


Chorus: (x2)
               C               G
So don't go away, say what you say
    ´               Am                  G
But say that you'll stay, forever and a day
                   F                     G
In the time of my life cause I need more time
                Am             G         F
Yes I need more time just to make things right (2x) <------

                Am             G         F
Yes I need more time just to make things right
                Am             G         F
Yes I need more time just to make things right
                            Am             G                 F        Fm
Yes I need more time just to make things right
               C
So, don't go away

Qualquer duvida:
                      


_______________________________________________________
Contribuição: Felipe Santana([email protected])
Correção: Victor Rocha Martins ([email protected])
Correção: Lex ([email protected])


Quer fazer uma correção nesta cifra?







    Comentários (0) Postar um Comentário

    Nenhum comentário encontrado. Seja o primeiro!