Cifra da música: Sad Song - Oasis

Esse cifra de Oasis já foi acessado por 699 pessoas.

Comente

A música Sad Song fez muito sucesso quando foi gravada por Oasis. Quer conhecer a letra dela? Veja a letra de Sad Song e cante.

Veja também o vídeo da música tocada.


Esta bonita música, composta por Noel Gallagher, faz parte do álbum 'Definitely Maybe',
na versão em vinil como faixa bônus.

Ela é tocada com um violão de 12 cordas (menos o solo), mas fica legal num violão comum e 
melhor ainda com dois violões.
-------------------------
ACORDES:

Am7:   (x02010)
C:     (x32010)
Asus2: (x02200)
E:     (022100)
G:     (320003)
D:     (xx0232)
Dsus2: (xx0230)
Dsus4: (xx0233)
Fmaj7: (x03210)

-------------------------

INTRODUÇÃO: Varie entre os acordes Am7 e C.


       Am7         C
Sing a sad song in lonely place
    Asus2                    E   G
And try to put a word in for me
          Am7            C
It's been so long since found a space
      Asus2                E       G
You'd better put in two or three
       Am7            C
We as people are just walking around
    Asus2                         E        G
Our heads are firmly fixed in the ground
        Am7                 C
What we don't see, well it can't be real
     Asus2                    E      G
What we don't touch we cannot feel

-------------------------REFRÃO------------------------------------------
C                    G
  Where we're livin' in this town
    Am                        C
The sun is coming up and it's going down
         C            G                      D   Dsus2 D Dsus4 D Dsus2 D
But it's all just the same at the end of the day
        Am           G
And we cheat and we lie
Am                           G
Nobody says it's wrong so we don't ask why
          Am           G                      D   Dsus2 D Dsus4 D Dsus2 D
'Cos it's all just the same at the end of the day
                 Fmaj7  C
Are we throwing it all away
               Fmaj7  C
We're throwing it all away
               Fmaj7  C                      E
We're throwing it all away at the end of the day

--------------------------------------------------------------------------

        Am7              C
If you need it something I can give
  Asus2                   E   G
I know I'd help you if I can
          Am7            C
If you're honest and you say what you did
    Asus2                         E     G
You know that I would give you my hand
      Am7               C
Or a sad song in a lonely place
    Asus2                      E    G
I'll try and put a word in for you
           Am7                C
You need a shoulder? Well if that's the case
     Asus2                          E    G
You know there's nothing I wouldn't do

------------------------------REFRÃO--------------------------------------
C                    G
  Where we're livin' in this town
    Am                        C
The sun is coming up and it's going down
         C            G                      D   Dsus2 D Dsus4 D Dsus2 D
But it's all just the same at the end of the day
        Am           G
And we cheat and we lie
Am                           G
Nobody says it's wrong so we don't ask why
          Am           G                      D   Dsus2 D Dsus4 D Dsus2 D
'Cos it's all just the same at the end of the day

               Fmaj7  C
Don't throw it all    away
               Fmaj7  C
Don't throw it all    away
               Fmaj7  C
Don't throw it all    away
               Fmaj7  C
Don't throw it all    away

--------------------------------------------------------------------------

SOLO (Violão 2):


|------------------------------------------------------------------------------------------
|------------------------------------------------8-----------------------------------------
|----------5-7-5-7/9-7-5/7-5vvv----------5-7-7/9---5/7-5vvv----------5-7-5-7/9-7-5/7-5vvv--
|------5-7---------------------------5-7-------------------------5-7-----------------------
|--5-7---------------------------5-7-------------------------5-7---------------------------
|------------------------------------------------------------------------------------------

|--------------------|-------7---7-----7---7-----7---7----
|----------------8---|8vvv-----8---8-----8---8-----8---8--.....
|----------5-7-9---7-|------------------------------------
|------5-7-----------|------------------------------------
|--5-7---------------|------------------------------------
|--------------------|------------------------------------
                      Don't throw...

      Fmaj7  C
...it all    away
               Fmaj7  C
Don't throw it all    away
               Fmaj7  C
Don't throw it all    away
               Fmaj7  C                          E
Don't throw it all    away...  at the end of the day





Quer fazer uma correção nesta cifra?







    Comentários (0) Postar um Comentário

    Nenhum comentário encontrado. Seja o primeiro!