Cifra da música: Roll With It - Oasis

Esse cifra de Oasis já foi acessado por 669 pessoas.

Comente

A música Roll With It fez muito sucesso quando foi gravada por Oasis. Quer conhecer a letra dela? Veja a letra de Roll With It e cante.

Veja também o vídeo da música tocada.


Words & Music By Noel Gallagher, perfromed by Oasis
Song can be found on the Uk Single Roll With It or on the (Whats The Story) 
Morning Glory Album
This one should be right as its come from the offical chord book and it 
should be the easiest to understand
                         
Chords Used:

D7    (xx0212)
C9    (032330)
G     (320003)
Csus2 (032030)
G/B   (020030)
Asus  (002230)
Dsus4 (000233)
F     (133211)
C     (032010)
D     (000232)
Cadd9 (032330)

Intro:

     D7 C9       G        G        D7       C9       G
E----2--0-0-0-0--3-3-3-3--3-3-3-3--2-2-2-2--0-0-0-0--3-3-3-3--3-3-3-3
B----1--3-3-3-3--0-0-0-0--0-0-0-0--1-1-1-1--3-3-3-3--0-0-0-0--0-0-0-0
G----2--3-3-3-3--0-0-0-0--0-0-0-0--2-2-2-2--3-3-3-3--0-0-0-0--0-0-0-0
D----0--2-2-2-2--0-0-0-0--0-0-0-0--0-0-0-0--2-2-2-2--0-0-0-0--0-0-0-0
A----x--3-3-3-3--2-2-2-2--2-2-2-2--x-x-x-x--3-3-3-3--2-2-2-2--2-2-2-2
E----x--0-0-0-0--3-3-3-3--3-3-3-3--x-x-x-x--0-0-0-0--3-3-3-3--3-3-3-3

     D7       C9       
E----2-2-2-2--0-0-0-0------------------
B----1-1-1-1--3-3-3-3----2-0-2-3-2-0-2-
G----2-2-2-2--3-3-3-3------------------
D----0-0-0-0--2-2-2-2---2--------------
A----x-x-x-x--3-3-3-3--0---------------
E----x-x-x-x--0-0-0-0------------------

Verse 1

G
You gotta roll with it
G
You gotta take your time
G
You gotta say what you say
G
Don't let anybody get in your way
Csus2           G/B                Asus   G G 
'Cause it's all too much for me to take

G
Don't ever stand aside
G
Don't ever be denied
G
You wanna be who you'd be
G
If you're coming with me

Csus2            G/B                 Asus
I think I've got a feeling I've lost inside
Csus2            G/B               Asus
I think I'm gonna take me away and hide
Csus2            G/B                           Dsus4 G G
I'm thinking of things that I just can't abide

Chorus:

F                     F                    G     G
I know the roads down which your life will drive
F                   F             G       G
I find the key that lets you slip inside
F                    F              G     G
Kiss the girl, she's not behind the door
F             
But you know I think I recognize your face
C                       D       D
But I've never seen you before

Verse 2:

G
You gotta roll with it
G
You gotta take your time
G
You gotta say what you say
G
Don't let anybody get in your way
Csus2           G/B                Asus   G G 
'Cause it's all too much for me to take

Guitar Solo:

F F G G 
F F G G
F F G G
Cadd9 G/B Asus Cadd9 G/B
Dsus Dsus G G

Chorus:

F                     F                    G     G
I know the roads down which your life will drive
F                   F             G       G
I find the key that lets you slip inside
F                    F              G     G
Kiss the girl, she's not behind the door
F             
But you know I think I recognize your face
C                       D       D
But I've never seen you before

Verse 3:

G
You gotta roll with it
G
You gotta take your time
G
You gotta say what you say
G
Don't let anybody get in your way
Csus2           G/B                Asus   G G 
'Cause it's all too much for me to take

G
Don't ever stand aside
G
Don't ever be denied
G
You wanna be who you'd be
G
If you're coming with me


Csus2            G/B                 Asus
I think I've got a feeling I've lost inside
I think I've got a feeling I've lost inside
I think I've got a feeling I've lost inside
I think I've got a feeling I've lost inside
I think I've got a feeling I've lost inside
I think I've got a feeling I've lost inside
I think I've got a feeling I've lost inside
I think I've got a feeling I've lost inside

Csus2            G/B                 Asus  G

Does anyone have the correct lyrics and chords to boneheads bank holiday 
and does anyone have the chords to swamp song aswell



Heres The  Roll with it Intro:
Its sounds a lot better if you play it like this

Roll With It
 
Intro:

     D7 C9       G        G        D7       C9       G
E----2--0-0-0-0--3-3-3-3--3-3-3-3--2-2-2-2--0-0-0-0--3-3-3-3--3-3-3-3
B----1--3-3-3-3--0-0-0-0--0-0-0-0--1-1-1-1--3-3-3-3--0-0-0-0--0-0-0-0
G----2--3-3-3-3--0-0-0-0--0-0-0-0--2-2-2-2--3-3-3-3--0-0-0-0--0-0-0-0
D----0--2-2-2-2--0-0-0-0--0-0-0-0--0-0-0-0--2-2-2-2--0-0-0-0--0-0-0-0
A----x--3-3-3-3--2-2-2-2--2-2-2-2--x-x-x-x--3-3-3-3--2-2-2-2--2-2-2-2
E----x--0-0-0-0--3-3-3-3--3-3-3-3--x-x-x-x--0-0-0-0--3-3-3-3--3-3-3-3

     D7       C9       
E----2-2-2-2--0-0-0-0------------------
B----1-1-1-1--3-3-3-3----2-0-2-3-2-0-2-
G----2-2-2-2--3-3-3-3------------------
D----0-0-0-0--2-2-2-2---2-2-2-2-2-2-2--
A----x-x-x-x--3-3-3-3--0---------------
E----x-x-x-x--0-0-0-0------------------



Quer fazer uma correção nesta cifra?







    Comentários (0) Postar um Comentário

    Nenhum comentário encontrado. Seja o primeiro!