Cifra da música: Married With Children - Oasis

Esse cifra de Oasis já foi acessado por 539 pessoas.

Comente

A música Married With Children fez muito sucesso quando foi gravada por Oasis. Quer conhecer a letra dela? Veja a letra de Married With Children e cante.

Veja também o vídeo da música tocada.


Chords used:

E	(022100)
E?      (076780)  (This is the chord played once at the VERY end)
G#	(466544)
C#m	(x46654)
A	(577655)
AaddG	(x02223)
A11	(577600)
C	(x35553)
B7	(x24242)
F#	(244322)
F#5     (2443xx)
F#11	(244300)
G11	(355400)
B11	(799800)

INTRO
-----	
Tab key:
b = bend (7b8 means bend the string at the 7th fret to produce the note
that the string would make if played at the 8th fret with no bend)
r = release bend
h = hammer on
p = pull off
s = slide

  E  G# C#m A	      C  B7    E	       E      G#   C#m           A
B-----------------5h7-5--7b8-7-5-------------------------5-7b8-7b8-7p5---5-7b8-
G-------------4h6----------------------4-------------4-6---------------6-------
D----------------------------------4h6---4h6-4-2--s6---------------------------

         C  B7    E
B--7p5---5--7b8-7-5------
G------6-----------------
D------------------------

VERSE 1
-------
E            G#              C#m        A
  There's no need for you to say you're sorry
	  C        B7    E                     E
      Goodbye, I'm going home
B---------5--------7b8-7-5--------------------------
G-----4h6------------------------4------------------
D-4h6------------------------4h6---6-4-6-4-6-4-2----

E         G#              C#m        A
  I don't care no more so don't you worry
	  C        B7    E
      Goodbye, I'm going home
B---------5--------7b8-7-5------
G-----4h6-----------------------
D-4h6---------------------------

PRE-CHORUS
----------
	     AaddG                      E   			AaddG
               I hate the way that even though you know you're wrong
B------------5--------------------------------------------7b8-7-5---
G-----4--4h6--------------------------------------------------------
D-4h6---------------------------------------------------------------

	          E		    AaddG
   You say you're right		       I hate the books you read and 
B-------------------------------------------------------------------
G---------------------4---------------------------------------------
D-----------------4h6-----4h6-4-6-4-2-------------------------------

   E			  F#5
   all your friends  Your music's shite it keeps me  
e---------------------------------0----------------
B---------------------------0--------0-------------
G------------------------------3--------3----------

   A11                 G11
   up all night up all night
e-----------------------------
B----------5-------------3----
G--------6-------------4------

 E           G#		     C#m         A          C        B7    
  There's no need for you to say you're sorry   Goodbye, I'm going 
B-----------------------------------------------5h7-5--------7b8-7-
G-------------------------------------------4h6--------------------
D------------------------------------------------------------------

  E			 E         G#              C#m        
  home                     I don't care no more so don't you 
B-5---------------------------------
G--------4--------------------------
D----4h6---6---4-6-4-6-4-2----------

   A         C	      B7    E          AaddG			    E
  worry  Goodbye, I'm going home	 I hate the way the you are so
B------5--7--5--------7b8-7-5----------5------------------------------
G---s6-----------------------------4h6--------------------------------
D---------------------------------------------------------------------
                   AaddG           E			AaddG
  sarcastic    And you're not very bright    		You think that
B--------7b8-7-5---5--------------------------------------------------
G----------------6-----------------------4----------------------------
D------------------------------------4h6---6--4-6-4-6-4-2-------------

		    E			   F#5
  everything you've done's fantastic  Your music's shite it keeps me
e--------------------------------------------------0----------------
B---------------------------------------------0-------0-------------
G------------------------------------------------3-------3----------
  A11                 G11
  up all night up all night
B----------5------------3-----
G--------6------------4-------
D-----------------------------

SOLO
----
  E    G#      C#m       A       C        B7    E		       E
B----------5---5-7b8-7b8-b8r7-5--------------------------------------------
G------4-6---6------------------------------------------4------------------
D---s6---------------------------4b5-4b5-4--2-4-2---4h6---6--4-6-4-6-4-2---

  E      G#    C#m       A        C       B7  E
e------------------------------------7--------------
B----------5---5-7b8-7b8-b8r7-5---s9---9-7--7-5-----
G------4-6---6--------------------------------------
D---s6----------------------------------------------

BRIDGE
------
C#m		 G#m         A                  E
  And it will be nice to be alone for a week or two
					       e---0------------------
					       B---------3----------3-
					       G---------------4------


C#m               G#m               A                    B11
  Then I know that I will be right, right back here with you
     A11      G#m      F#11     B11      A11      G#m      F#11
with you with you with you with you with you with yoooooouuuuu

FINAL VERSE
-----------
E            G#              C#m         A
  There's no need for you to say you're sorry   Goodbye, I'm going 
B-----------------------------------------7b8-7p5---5--------7b8r7-
G-------------------------------------------------6----------------
D------------------------------------------------------------------

  E		   E         G#              C#m
  home		     I don't care no more so don't you 
B---------------------------
G--------4-----4------------
D----4h6---4h6---4-2--------

  worry   Goodbye.......I'm going...............home
e------------------------------------------------------0---- 
B-------5--7--7b8-------7b8-7b8r7--5---------5--5------8----
G----s6----------------------------------4h6-----------7----
D------------------------------------------------------6----
A------------------------------------------------------7----
E------------------------------------------------------0----




Quer fazer uma correção nesta cifra?







    Comentários (0) Postar um Comentário

    Nenhum comentário encontrado. Seja o primeiro!