Cifra da música: Hey Hey My My (Into The Black) - Oasis

Esse cifra de Oasis já foi acessado por 651 pessoas.

Comente

A música Hey Hey My My (Into The Black) fez muito sucesso quando foi gravada por Oasis. Quer conhecer as demais músicas? Conheça as letras das músicas gravadas por Oasis e aproveite.

Veja também o vídeo da música tocada.


Autor: Neil Young

Acordes:

Am: x02210
D : xx0232
F : 133211
C : x32010
G : 320033

Tablatura
b: bend
: slide até o inicio da corda deixando vibrar solta
p: pull off
s: slide específico

Intro:
    Am        D               F
E|---------------------------1-1-1---1-1-1
B|---------------------------1-1-1---1-1-1
G|---------------------------2-2-2---2-2-2
D|---------------------------3-3-3---3-3-3
A|-------2-3-5---2-----------3-3-3---3-3-3
E|--5--5------------5--3-5---1-1-1---1-1-1

    Am       D               F
E|---------------------------1-1-1---1-1-1
B|---------------------------1-1-1---1-1-1
G|---------------------------2-2-2---2-2-2
D|---------------------------3-3-3---3-3-3
A|-------2-3-5---2-----------3-3-3---3-3-3
E|--5--5------------5--3-5---1-1-1---1-1-1

    C         G          Am     F
E|-----------------------------------------
B|-----------------------------------------
G|-----------------------------------------
D|-----------------------7--7--------------
A|----------7-10--10-8-7------10-8--b-----
E|--8--8-10--------------------------------

    Am       D            F
E|----------------------------1-1-1---1--1-1
B|----------------------------1-1-1---1--1-1
G|----------------------------2-2-2---2--2-2
D|----------------------------3-3-3---3--3-3
A|-------2-3-5---3-2----------3-3-3---3--3-3
E|--5--5---------------5--1---1-1-1---1--1-1


Am     D      F
  Hey Hey My My
Am          D               F  
  Rock and Roll will never die
C                        G
  There's more into the picture
Am                F
   Than meets the eye
Am      D      F
   Hey Hey My My





Riff_1
Am           D                 F
E|-----------------------------1-1-1---1-1-1
B|-----------------------------1-1-1---1-1-1
G|-----------------------------2-2-2---2-2-2
D|-----------------------------3-3-3---3-3-3
A|-------2-3-5---2-------------3-3-3---3-3-3
E|--5--5---------------5-3--5--1-1-1---1-1-1
Am           D             F
E|----------------------------1-1-1---1--1-1
B|----------------------------1-1-1---1--1-1
G|----------------------------2-2-2---2--2-2
D|-------------------------3--3-3-3---3--3-3
A|-------2-3-5---3-2----------3-3-3---3--3-3
E|--5--5---------------5------1-1-1---1--1-1

Am                  D             F
   Get out of the blue into the black
Am              D                    F
   I give you this but you pay for that
C                 G  Am                   F
   Then when you die   no you won't come back
Am                             D             F
   Because you're out of the blue into the black

Riff_1

Solo: (C G Am F Am D F)
   
|--------5---------------------------------------------
|----------8-5-----------------------------------------
|--7b9---------7b9r7~~~---------5~~----7b9r7-5-7b9-----
|---------------------------5-7------------------------
|-------------------------7----------------------------
|------------------------------------------------------
                                 (melhor impossivel!!!)
O primeiro F(fá) depois do solo ele toca assim:
e|------
B|--13--
G|--10--              (pode notar que é
D|--10--               um fá mais agudo)
A|------
E|------


Am     D      F
   My My Hey Hey
Am           D                F
   Rock and roll is here to stay
C                G     
   Is better to run now
Am                F
   Than to fade away
Am     D      F
   My My Hey Hey

Riff_1

Riff Final

E|---------------------------------------
B|---------------------------------------
G|-------------------------------------5-
D|-------------------------------------7-
A|-------2-3-5~~~~--2-0----------------7-
E|--5--5-----------------3~~~--4~~s12~s5-
(Esse slide ate a casa 12 ele fez no show do rock in rio.
 Eu acho que fica bem melhor)

Está ai... Essa música é um hino de rock'n roll. Mais uma obra prima do Neil Young.
Eu particularmente gostei muito da versão do Oasis ao vivo em Wembley.
 O Noel fez algumas mudanças na música e na letra mas ficou muito bom. Aproveitem.

Trancrito por Daniel Teixeira. 

Comentários, Sugestões, Erros,
[email protected]





Quer fazer uma correção nesta cifra?







    Comentários (0) Postar um Comentário

    Nenhum comentário encontrado. Seja o primeiro!