Cifra da música: Fuckin´in the Bushes - Oasis

Esse cifra de Oasis já foi acessado por 494 pessoas.

Comente

A música Fuckin´in the Bushes fez muito sucesso quando foi gravada por Oasis. Quer conhecer as demais músicas? Conheça as letras das músicas gravadas por Oasis e aproveite.

Veja também o vídeo da música tocada.


Not a bad start to the album, but not great. I've tabbed it out as best 
as
I can. Enjoy.

*Intro*:

	Drums x2

	We put this festival on you bastards, with a lotta love.

e|-------------------|
B|-pick slide--------|
G|-----------------9-| 
D|-x/--------------9-|
A|-x/--------------7-| 
E|-x/----------------|
	
	We marched one year for you pigs.
	And you want to break our walls down? And you wanna destroy us?
	Well you go to hell!

*Verse*:

e|--------------------------|
B|--------------------------|
G|--------------------------|
D|--------------------------|
A|---------------/7-5-5h7-7-|
E|--0-0-0-3p0---------------|

Bass joins in after 4 times. Keep repeating this riff.
Then these chords are played after 8 times. 

      A      B  C
e|----5------7--8----|
B|----5------7--8----| 
G|----6------8--9----|
D|----7------9--10---|
A|----7------9--10---|
E|----5------7---8---|

Then this is played after another 16 times :

*Bridge*:

e|---------------------|----------------------|------------------
B|---------------------|----------------------|------------------
G|---------------------|----------------------|------------------
D|--7b9p7--------------|--7b9p7---------------|-7b9p7------------
A|--------7-7-7-7-7-7--|--------7-7-7-7-7-7---|-------7-7-7-7-7-7
E|---------------------|----------------------|------------------

e|---------------------|
B|---------------------|
G|---------------------|
D|--7b9p7----7b9p7-----|
A|--------7--------7-7-|
E|---------------------|


*Chorus*:

	Kids running around naked, fucking in the bushes.

e|-------------------------------|
B|------------8p5----------------|
G|--7b9-----------7p5------------|     x 4	(Riff 1)
D|--------------------7p5--------|
A|---hold bend-------------7p5---|
E|-------------------------------|

e|---------------5--8b10--|-8-5-8-5--8p5------------------------|
B|-------8----------------|--------------8p5---------8p5--------|
G|--7b9~~~~~~9------------|-------------------7p5--------7p5----|
D|------------------------|----------------------7p5---------7--|
A|----hold bend-----------|-------------------------------------|
E|------------------------|-------------------------------------| 

	I love it!

*Then repeat the bridge, with slight variation.*

*Repeat Chorus*. (Only using riff 1)

	Room for everybody here, yes all are welcome. Yes indeed
	I love them. 
	Fun. Nice. Life. Youth. Beautiful. I'm all for it. 

*Repeat Riff 1 to fade.*

	Room for everybody here, yes all are welcome. Yes indeed
	I love them. 
	Fun. Nice. Life. Youth. Beautiful. I'm all for it. 


Quer fazer uma correção nesta cifra?







    Comentários (0) Postar um Comentário

    Nenhum comentário encontrado. Seja o primeiro!