Cifra da música: With Arms Wide Open - Creed

Esse cifra de Creed já foi acessado por 818 pessoas.

Comente

A música With Arms Wide Open fez muito sucesso quando foi gravada por Creed. Quer conhecer a letra dela? Veja a letra de With Arms Wide Open e cante.

Veja também o vídeo da música tocada.


Versão 1
-======-

     INTRO/VERSE 1:

    E|------------------------------------------------------------------------|
    B|--0h1-------1-----1h3---1---1-0h1p0--0h1-------1-----1h3---1---1-0h1p0--|
    G|------0-------0--------------------------0-------0----------------------|
    D|--------2----------------------------------0----------------------------|
    A|--3-------3-----3-3---3---3----------2-------2-----2-2---2---2---2------|
    D|------------------------------------------------------------------------|

    E|--------------------------------------------------------------------------|
    B|--0h1-------1------0h1p0-------0------0h1-------1------0h1p0-------0------|
    G|------0-------0----------0-------0--------0-------0----------0-------0----|
    D|--------2------------------2----------------2------------------2----------|
    A|--0-------0-----0--0---------0-----0--0-------0-----0--0---------0-----0--|
    D|--------------------------------------------------------------------------|

     1ST CHORUS:

    E|-------------------------|
    B|--6--6----------5--5-----|
    G|--5--5--5--5-5--4--4--7--|
    D|--3--3--5--5-5--2--2--7--|
    A|--3--3--3--3-3--2--2--5--|
    D|--3--3----------2--2--0--|

     VERSE 2:

    E|--------------------|
    B|--1----1----1--1-1--|
    G|--0----0----0--0-0--|
    D|--2----0----2--2-2--|  
    A|--3----2----0--0-0--|
    D|--------------------|

     2ND CHORUS:

    E|---------------------------------------------------------------|
    B|--6--6--6-6-6--6-6--------------------5--5-5--5--5-------------|
    G|--5--5--5-5-5--5-5--5--5--5-5-5--5-5--4--4-4--4--4---7--7-7-7--|
    D|--3--3--3-3-3--3-3--5--5--5-5-5--5-5--2--2-2--2--2---7--7-7-7--|
    A|--3--3--3-3-3--3-3--3--3--3-3-3--3-3--2--2-2--2--2---5--5-5-5--|
    D|--3--3--3-3-3--3-3--------------------2--2-2--2--2---0--0-0-0--|

    E|--------------------------------------------------------|
    B|--6--6--6-6-6--6-6--------------------5--5-5--5--5------|
    G|--5--5--5-5-5--5-5--5--5--5-5-5--5-5--4--4-4--4--4---7--|
    D|--3--3--3-3-3--3-3--5--5--5-5-5--5-5--2--2-2--2--2---7--|
    A|--3--3--3-3-3--3-3--3--3--3-3-3--3-3--2--2-2--2--2---5--|
    D|--3--3--3-3-3--3-3--------------------2--2-2--2--2---0--|

     SOLO:

    E|----------------------------------------------------------------------|
    B|-------3-5-6-5-6-5~---3-5-6-5-6-5~---3-5-6-8-6-5-6-5-6-5-6-5-6-9b--8--|
    G|--5-------------------------------------------------------------------|
    D|--5-------------------------------------------------------------------|
    A|--3-------------------------------------------------------------------|
    D|----------------------------------------------------------------------|

     BRIDGE:

    E|-----------------------------------------------------------------|
    B|--3-5-6-5-6-5~---3-5-6-5-6-5~---3-5-6-8-6-5-6-5-6-5-6-5-6-9b--8--|
    G|-----------------------------------------------------------------|
    D|-----------------------------------------------------------------|
    A|-----------------------------------------------------------------|
    D|-----------------------------------------------------------------|

     ENDING CHORD:

    E|-----|
    B|-----|
    G|--5--|
    D|--5--|
    A|--3--|
    D|-----|



Versão 2:



   (C9)      (?)         (Am)
E|--3---------3----------0----------|     
B|--1---------1----------1----------|
G|--0---------0----------2----------|
D|--2---------0----------2----------|
A|--3---------2----------0----------|
E|--0---------0----------0----------|



* = palm muted note

Use o solo da introdução
     C                     C/B
Well I just heard    the news  to day
   Am7                     Am7
It seems my life     is gonna change
  C                      C/B
I close my eyes,    begin to pray
     Am7                      Am7/G
Then tears of joy    stream down my face

(sem distorção)
                F                        C
With arms wide open      Under the sunlight
        Em                                 D
Welcome to this place   I'll show you everything
                C       C/B                    Am7       Am7   
With arms wide open         With arms wide open

     C                     G/B
Well I don't know    if I'm ready
   Am7                 Am7/G
To be the man     I have to be
     C                              G/B
I'll take a breath, I'll take her by my side
   Am7                      Am7/G
We stand in awe, we've created life
 
(distorção)
                F5                       C5
With arms wide open      Under the sunlight
        E5                                 D5
Welcome to this place   I'll show you everything
               F5                     C5
With arms wide open       Now everything has changed
              E5                           D5
I'll show you love          I'll show you everything

                C       C/B                    Am7       Am7/G   
With arms wide open         With arms wide open
                 C                C/B                     Am7            Am7/G
I'll show you everything   oh yeah    With arms wide open    wide open

(Solo)
C5   C5/B   Bb5   A5
Solo
h = hammer-on
p = pull-off
/ = slide up

e|------------------------------------------------------------------------------------
B|------5-5h6-5-6-5------5-6-5-6-5------5-6/8-6-5--6-5h6p5-6-5h6p6-6-5h6p5-6-8b10r8-8-
G|--5-7--------------5-7------------5-7-----------------------------------------------
D|------------------------------------------------------------------------------------
A|------------------------------------------------------------------------------------
D|------------------------------------------------------------------------------------
 C5              C5/B           Bb5            A5

          C5                        C5/B
If I had just one wish    Only one demand
            Bb5                       A5
I hope he's not like me   I hope he understands
            C5                             C5/B
That he can take this life  And hold it by the hand
           Bb5                               A5
And he can greet the world  With arms wide open

(distorção)
              F5                       C5
With arms wide open      Under the sunlight
        E5                                 D5
Welcome to this place   I'll show you everything
               F5                     C5
With arms wide open       Now everything has changed
              E5                           D5
I'll show you love         I'll show you everything

              C       C/B                    Am7       Am7/G   
With arms wide open         With arms wide open
                C                C/B                     Am7     Am7/G
I'll show you everything   oh yeah    With arms wide open
     C
Wide open

 Rodrigo Höfke - [email protected]






Versão 2
-======-

INTRODUÇÃO:
E|--------------------------------------------------------------------|
B|--0h1-------1-----1h3---1---0h1p0--0h1-------1------3----1---0h1p0--|
G|------0-------0------------------------0-------0--------------------|
D|--------2--------------------------------0--------------------------|
A|--3-------3-----3-----3---3--------2-------2-----2-----2---2--------|
D|--------------------------------------------------------------------|

E|--------------------------------------------------------------------------|
B|--0h1-------1------0h1p0-------0------0h1-------1------0h1p0-------0------|
G|------0-------0----------0-------0--------0-------0----------0-------0----|
D|--------2------------------2----------------2------------------2----------|
A|--0-------0-----0--0---------0-----0--0-------0-----0--0---------0-----0--|
D|--------------------------------------------------------------------------|

VERSO I:
E|--------------------------------------------------------------------|
B|--0h1-------1------3----1---0h1p0--0h1-------1------3----1---0h1p0--|
G|------0-------0------------------------0-------0--------------------|
D|--------2--------------------------------0--------------------------|
A|--3-------3-----3-----3---3--------2-------2-----2-----2---2--------|
D|--------------------------------------------------------------------|

E|--------------------------------------------------------------------------|
B|--0h1-------1------0h1p0-------0------0h1-------1------0h1p0-------0------|
G|------0-------0----------0-------0--------0-------0----------0-------0----|
D|--------2------------------2----------------2------------------2----------|
A|--0-------0-----0--0---------0-----0--0-------0-----0--0---------0-----0--|
D|--------------------------------------------------------------------------|

E|--------------------------------------------------------------------|
B|--0h1-------1------3----1---0h1p0--0h1-------1-----1h3---1---0h1p0--|
G|------0-------0------------------------0-------0--------------------|
D|--------2--------------------------------0--------------------------|
A|--3-------3-----3-----3---3--------2-------2-----2-----2---2--------|
D|--------------------------------------------------------------------|

E|----------------------------------------------------------------------|
B|--0h1-------1------0h1p0-------0------0h1-------1------0h1p0-------0--|
G|------0-------0----------0-------0--------0-------0----------0--------|
D|--------2------------------2----------------2------------------2------|
A|--0-------0-----0--0---------0-----0--0-------0-----0--0---------0----|
D|----------------------------------------------------------------------|

REFRÃO I:
E|--------------------------|
B|--6--6/8--8-8--5-5--5/10--|
G|--5--5/7--7-7--4-4--4/9---|
D|--3--3/5--5-5--2-2--2/7---|
A|--3--3/5--5-5--2-2--2/7---|
D|--3--3/5--5-5--2-2--2/7---|

E|--------------------------------------------------------------------|
B|--0h1-------1-----1h3----1---0h1p0--0h1-------1----1h3---1---0h1p0--|
G|------0-------0------------------------0-------0--------------------|
D|--------2--------------------------------0--------------------------|
A|--3-------3-----3-----3---3--------2-------2-----2-----2---2--------|
D|--------------------------------------------------------------------|

E|--------------------------------------------------------------------|
B|--0h1-------1------3p1-------1------0h1-------1------0h1p0-------0--|
G|------0-------0--------0-------0--------0-------0----------0--------|
D|--------2----------------2----------------2------------------2------|
A|--0-------0-----0--0-------0-----0--0-------0-----0--0---------0----|
D|--------------------------------------------------------------------|

VERSO II:
E|--3--0--3--3-3--|
B|--1--1--1--1-1--|
G|--0--0--0--0-0--|
D|--2--0--2--2-2--|
A|--3--2--0--0-0--|
D|----------------|

E|--3-----------------------------------------------------------|
B|--1----1-----1h3---1---0h1p0--0h1-------1----1h3---1---0h1p0--|
G|--0------0------------------------0-------0-------------------|
D|--2---------------------------------0-------------------------|
A|--3--3-----3-----3---3--------2-------2-----2----2---2--------|
D|--------------------------------------------------------------|

E|----------------------------------------------------------------------|
B|--0h1-------1------0h1p0-------0------0h1-------1------0h1p0-------0--|
G|------0-------0----------0-------0--------0-------0----------0--------|
D|--------2------------------2----------------2------------------2------|
A|--0-------0-----0--0---------0-----0--0-------0-----0--0---------0----|
D|----------------------------------------------------------------------|

REFRÃO II:
E|---------------------------------|
B|--6-6-6--8-8-8--5-5-5--10-10-10--|
G|--5-5-5--7-7-7--4-4-4---9--9--9--|
D|--3-3-3--5-5-5--2-2-2---7--7--7--|
A|--3-3-3--5-5-5--2-2-2---7--7--7--|
D|--3-3-3--5-5-5--2-2-2---7--7--7--|

E|---------------------------|
B|--6-6-6--8-8-8--5-5-5--10--|
G|--5-5-5--7-7-7--4-4-4---9--|
D|--3-3-3--5-5-5--2-2-2---7--|
A|--3-3-3--5-5-5--2-2-2---7--|
D|--3-3-3--5-5-5--2-2-2---7--|

E|--------------------------------------------------------------------|
B|--0h1-------1-----1h3---1---0h1p0--0h1-------1-----1h3---1---0h1p0--|
G|------0-------0------------------------0-------0--------------------|
D|--------2--------------------------------0--------------------------|
A|--3-------3-----3-----3---3--------2-------2-----2-----2---2--------|
D|--------------------------------------------------------------------|

E|--------------------------------------------------------------------------|
B|--0h1-------1------0h1p0-------0------0h1-------1------0h1p0-------0------|
G|------0-------0----------0-------0--------0-------0----------0-------0----|
D|--------2------------------2----------------2------------------2----------|
A|--0-------0-----0--0---------0-----0--0-------0-----0--0---------0-----0--|
D|--------------------------------------------------------------------------|

VERSE III:
E|--------------------------------------------------------------------|
B|--0h1-------1-----1h3---1---0h1p0--0h1-------1-----1h3---1---0h1p0--|
G|------0-------0------------------------0-------0--------------------|
D|--------2--------------------------------0--------------------------|
A|--3-------3-----3-----3---3--------2-------2-----2-----2---2--------|
D|--------------------------------------------------------------------|

E|--------------------------------------------------------------------------|
B|--0h1-------1------0h1p0-------0------0h1-------1------0h1p0-------0------|
G|------0-------0----------0-------0--------0-------0----------0-------0----|
D|--------2------------------2----------------2------------------2----------|
A|--0-------0-----0--0---------0-----0--0-------0-----0--0---------0-----0--|
D|--------------------------------------------------------------------------|

SOLO:
E|-----------------------------------------------|
B|----------5-5h6-5-5-6-5~-------5-5h6-5-5-6-5~--|
G|--5---5-7------------------5-7-----------------|
D|--5--------------------------------------------|
A|--3--------------------------------------------|
D|-----------------------------------------------|

E|-------------------------------------------------|
B|-----5-6b8r6-6-5--5h6p5-5h6p5-5h6p5-5h6p5-5h6p5--|
G|-5-7---------------------------------------------|
D|-------------------------------------------------|
A|-------------------------------------------------|
E|-------------------------------------------------|

E|---------------------------------------|
B|--5h6p5-5h6p5-5h6p5-5h6p5--6-8b10r8-8--|
G|---------------------------------------|
D|---------------------------------------|
A|---------------------------------------|
E|---------------------------------------|

PONTE:
E|-------------------------------------------|
B|------5-5h6-5-5-6-5~-------5-5h6-5-5-6-5~--|
G|--5-7------------------5-7-----------------|
D|-------------------------------------------|
A|-------------------------------------------|
D|-------------------------------------------|

E|-------------------------------------------------|
B|-----5-6b8r6-6-5--5h6p5-5h6p5-5h6p5-5h6p5-5h6p5--|
G|-5-7---------------------------------------------|
D|-------------------------------------------------|
A|-------------------------------------------------|
E|-------------------------------------------------|

E|---------------------------------------|
B|--5h6p5-5h6p5-5h6p5-5h6p5--6-8b10r8-8--|
G|---------------------------------------|
D|---------------------------------------|
A|---------------------------------------|
E|---------------------------------------|

E|-------------------------------------------|
B|------5-5h6-5-5-6-5~-------5-5h6-5-5-6-5~--|
G|--5-7------------------5-7-----------------|
D|-------------------------------------------|
A|-------------------------------------------|
D|-------------------------------------------|

E|-------------------------------------------------|
B|-----5-6b8r6-6-5--5h6p5-5h6p5-5h6p5-5h6p5-5h6p5--|
G|-5-7---------------------------------------------|
D|-------------------------------------------------|
A|-------------------------------------------------|
E|-------------------------------------------------|

E|---------------------------------------|
B|--5h6p5-5h6p5-5h6p5-5h6p5--6-8b10r8-8--|
G|---------------------------------------|
D|---------------------------------------|
A|---------------------------------------|
E|---------------------------------------|

REFRÃO III:
E|---------------------------------|
B|--6-6-6--8-8-8--5-5-5--10-10-10--|
G|--5-5-5--7-7-7--4-4-4---9--9--9--|
D|--3-3-3--5-5-5--2-2-2---7--7--7--|
A|--3-3-3--5-5-5--2-2-2---7--7--7--|
D|--3-3-3--5-5-5--2-2-2---7--7--7--|

E|---------------------------|
B|--6-6-6--8-8-8--5-5-5--10--|
G|--5-5-5--7-7-7--4-4-4---9--|
D|--3-3-3--5-5-5--2-2-2---7--|
A|--3-3-3--5-5-5--2-2-2---7--|
D|--3-3-3--5-5-5--2-2-2---7--|

END:
E|--------------------------------------------------------------------|
B|--0h1-------1-----1h3---1---0h1p0--0h1-------1-----1h3---1---0h1p0--|
G|------0-------0------------------------0-------0--------------------|
D|--------2--------------------------------0--------------------------|
A|--3-------3-----3-----3---3--------2-------2-----2-----2---2--------|
D|--------------------------------------------------------------------|

E|--------------------------------------------------------------------------|
B|--0h1-------1------0h1p0-------0------0h1-------1------0h1p0-------0------|
G|------0-------0----------0-------0--------0-------0----------0-------0----|
D|--------2------------------2----------------2------------------2----------|
A|--0-------0-----0--0---------0-----0--0-------0-----0--0---------0-----0--|
D|--------------------------------------------------------------------------|

E|--------------------------------------------------------------------|
B|--0h1-------1-----1h3---1---0h1p0--0h1-------1-----1h3---1---0h1p0--|
G|------0-------0------------------------0-------0--------------------|
D|--------2--------------------------------0--------------------------|
A|--3-------3-----3-----3---3--------2-------2-----2-----2---2--------|
D|--------------------------------------------------------------------|

E|---------------------------------------------------------------------------3--|
B|--0h1-------1------0h1p0-------0------0h1-------1------0h1p0-------0-------1--|
G|------0-------0----------0-------0--------0-------0----------0-------0-----0--|
D|--------2------------------2----------------2------------------2-----------2--|
A|--0-------0-----0--0---------0-----0--0-------0-----0--0---------0-----0---3--|
D|------------------------------------------------------------------------------|

=======================================================================
Galera, tipow....não tenho muita certeza dos refrões com acordes 
pesados... não sei se estão certos, pois fiz sem a utilização de um 
pedal, mas creio que, mesmo usando esses acordes, o som sairá correto.
 Até mais...





Quer fazer uma correção nesta cifra?







    Comentários (0) Postar um Comentário

    Nenhum comentário encontrado. Seja o primeiro!