Cifra da música: Don´t Stop Dancing - Creed

Esse cifra de Creed já foi acessado por 1623 pessoas.

Comente

A música Don´t Stop Dancing fez muito sucesso quando foi gravada por Creed. Quer conhecer a letra dela? Veja a letra de Don´t Stop Dancing e cante.

Veja também o vídeo da música tocada.


Versão 1
-======-                        Riff–Base (Ouça a música pra pegar o ritmo,ele se
                                            repete várias vezes) 

                                          
                          |0-0--0-0---------0---------|-0-0--0-0-----------0---------|
                          |0-0--3-3-----------3-------|-1-1--0-0------------8--------| 
                          |0-0--0-0------0------0-----|-0-0--0-0-------0------0------|
                          |0-0--4-4----4---------0----|-2-2--0-0------9--------------|
                          |2-2--5-5--5----------------|-3-3--3-3---10----------------|
                          |3-3--0-0-------------------|-0-0--0-0---------------------|


G                D/F#                                      
At times life is wicked and I just can’t                                       
          C   G/B                                                                    
see the light                                                                      
G                         D/F#                                                     
A silver lining sometimes isn’t enough
         C              G/B                                                      
To make some wrongs seem right                                                        
G           D/F#                                                            
Whatever life brings
                          C
I’ve been through everything
                             G/B
And now I’m on my knees again


         Am
But I know I must go on
           C
Although I hurt I must be strong
        Em
Because inside I know that many
            C/D
feel this way
Refrão:
G   D               A/C#        
Children don’t stop dancing
C               G
Believe you can fly
D     A/C#    C
       Away…away

(G   D/F#   C  G/B)2x

G               D/F#
At times life’s unfair and you know
         C       G/B   
it’s plain to see
G                 D/F# 
Hey God I know I’m just a dot in
this world
          C          G/B
Have you forgot about me?
 G            D/F#
Whatever life brings
                          C
I’ve been through everything
                         G/B
And now I’m on my knees again

         Am 
But I know I must go on
         C
Although I hurt I must be strong
        Em 
Because inside I know that many
            C/D
feel this way

Refrão

Base(Solo)-( G D/F#  C G/B)3x

Solo:
E|-12--14--15--17b--17b-------------------------------------------------------------|
B|-----------------------15------------15-----------15b--15----------15----------15b|
G|---------------------------14-16-14------14-16-14---------14-16-14----14-16-14----|
D|----------------------------------------------------------------------------------|
A|----------------------------------------------------------------------------------|
E|----------------------------------------------------------------------------------|

E|-15-----------15----------15b-----------------------------------------------------|
B|----14-16-14-----14-16-14-----16-14-----14-16-14b-----------------------15b--15b--|
G|------------------------------------17------------17-16-16-17-16-14-12------------|
D|----------------------------------------------------------------------------------|
A|----------------------------------------------------------------------------------|
E|----------------------------------------------------------------------------------|

D    A/C#     C    G
Am I hiding in the shadows?
D        A/C#        C        G          
Forget the pain and forget the sorrows  (2x)

Am
But I know I must go on
C
Although I hurt I must be strong
Em
Because inside I know that many
           C/D
feel this way

G         D           A/C#
Children don’t stop dancing
C               G
Believe you can fly
D      A/C#    C
      Away…away
Refrão 2x 

G    D/F#      C      G/B
Am I hiding in the shadows?
G    D/F#       C    G/B
Are we hiding in the shadows?

____





Versão 2
-======-


Riff 1

“At times life is wicked and I just can’t see the light”
-3--------------------------3------------------3--3-----0-0-0---0-0|
-3--------------------------3------------------3--3-----1-1-0---1-0|
-0--------------------------0------------------0--0-----0-0-0---0-0|
-0--------------------------0------------------0--0-----2-2-0---2-0|
-2--------------------------0------------------3--3-----3-3-3---3-3|
-3--------------------------2------------------2--2-----0-0-0---0-0|


Pre-refrão
“But I know I must go on . . . I heard I must be strong”
-0--------------------------------0--------------------|
-1--------------------------------1--------------------|
-2--------------------------------0--------------------|
-2--------------------------------2--------------------|
-0--------------------------------3--------------------|
----------------------------------0--------------------|

com distorção...

“Cause inside I know that many feel this way~~~~~~ . . .”
---------------------------------------------------------|
---------------------------------------------------------|
---------------------------------------------5-5-5---/7--|
-------2-~~~~~~~~~~~~~~~~~~~~~~~~~~~---------5-5-5---/7--|
-------2-~~~~~~~~~~~~~~~~~~~~~~~~~~~---------3-3-3---/5--|
-------0-~~~~~~~~~~~~~~~~~~~~~~~~~~~---------------------|
(colocar efeito pesado  no Em)                                   
                                           
Refrão
“Children don’t stop dancing” “Believe you can fly~~~~ away; away“
------------------------------|----------------------------------|
------------------------------|----------------------------------|
---------7-----------6--------|-5------------------7----6-----5--|  
-5-------7-----------7--------|-5--------------5---7----7-----5--| 
-5-------5-----------4--------|-3--------------5---5----4-----3--|
-3-------------------5--------|----------------3--------5--------|

Riff - Base
|0-0--0-0---------0---------|-0-0--0-0-----------0----------|
|0-0--3-3-----------3-------|-1-1--0-0------------8---------| 
|0-0--0-0------0------0-----|-0-0--0-0-------0------0-------|
|0-0--4-4----4---------0----|-2-2--0-0------9---------------|
|2-2--5-5--5----------------|-3-3--3-3---10-----------------|
|3-3--0-0-------------------|-0-0--0-0----------------------|

Pre-refrão 

Refrão

Solo – (1:58)
--10/12~----12/14~------14/15-|----15b--15b--17b-------|
------------------------------|------------------------|
------------------------------|------------------------|
------------------------------|------------------------|
------------------------------|------------------------|
------------------------------|------------------------|
                                                                            
--------------------------------------|--------------------------------------|
--15~-----------15~-----------15-15b--|--15~-----------15~-----------15-15b--|
-------14-16-14------14-16-14---------|-------14-16-14------14-16-14---------|
--------------------------------------|--------------------------------------|
--------------------------------------|--------------------------------------|
--------------------------------------|--------------------------------------|
                                                                     
------------------------------------------|--------------------------|
--15~-----------15~-----------15-15b------|------------12------------|
-------14-16-14------14-16-14-------16h14-|--12~----14----14b--------|
------------------------------------------|--------------------------|
------------------------------------------|--------------------------|
------------------------------------------|--------------------------|
                                                                             
------------------------|---------------------12-------|--------------------|
------------------------|---------------------15b15r---|--15----------------|
--12~-----11~-------11b-|--11r-------------------------|--------------------|
------------------------|-----14-----12--12/-----------|--------------------|
------------------------|------------------------------|--------------------|
------------------------|------------------------------|--------------------|
                                                                              
Ponte – 
“Are we hiding ~~~~ in the shadows?”
----------------|-----------------|
----------------|-----------------|
-7--------6-----|-----5-----------| 
-7--------7-----|-----5--------5--|
-5--------4-----|-----3--------5--|
----------5-----|--------------3--|


“But I know I must go on . . . I heard I must be strong”
-0--------------------------------0--------------------|
-1--------------------------------1--------------------|
-2--------------------------------0--------------------|
-2--------------------------------2--------------------|
-0--------------------------------3--------------------|
----------------------------------0--------------------|

“Cause inside I know that many feel this way~~~~~~ . . .”
-------------------------------------------------------|
-------------------------------------------0-------(0)-|
-------------------------------------------5-------(7)-|
-------2------------2--------2-------------5-------(7)-|
-------2------------2--------2-------------3-------(5)-|
-------0------------0--------0-------------------------|


Refrão limpo
“Children don’t stop dancing” “Believe you can fly!”    Away...
-3------2------0-------0--|----------------3-------2-----0---|
-3------3------2-------2--|------1---------3-------3-----2---|
-0------2------2-------2--|------0---------0-------2-----2---|
-0------0------2-------2--|------2---------0-------0-----2---|
-2-------------0-------0--|------3---------2-------0-----0---|
-3------------------------|----------------3-----------------|

com distorção – “Away!!!!”
---------------------|
---------------------|
5-5-5-5-5-5-5-5---5--| 
5-5-5-5-5-5-5-5---5--|
3-3-3-3-3-3-3-3---3--|                                                       
---------------------|

Refrão

Outro –
“Am I hiding ~~~~ in the shadows?”
----------------|-----------------|
-0--------------|-----0-----------|
-7--------6-----|-----5--------0--| 
-7--------7-----|-----5--------5--|
-5--------4-----|-----3--------5--|
----------5-----|--------------3--|


__________________________________________________________



 





Quer fazer uma correção nesta cifra?







    Comentários (0) Postar um Comentário

    Nenhum comentário encontrado. Seja o primeiro!