Cifra da música: One Last Breath - Creed

Esse cifra de Creed já foi acessado por 1189 pessoas.

Comente

A música One Last Breath fez muito sucesso quando foi gravada por Creed. Quer conhecer a letra dela? Veja a letra de One Last Breath e cante.

Veja também o vídeo da música tocada.


Versão 1
-======-

Introdução:
E|-2----5----0h2------------------------------------------------|
B|---------------3-----2-3-3h5-5p3p2-3--------3-----2-----------|
G|-----------------0-2------------------4------------4----------|
D|-0--0---0-------------------------------4----4-------4--------|
A|----------------------------------------------2---------------|
E|--------------------------------------------------------------|

E|--------------3---2----3---2-0h2------------------------------|
B|--------3-----------------------3---------2h3p2---------------|
G|-----0----------------------------------2---------------------|
D|----0-0----0----0-0--0---0-------0-----2---------5-4----------|
A|-----------------------------------4-0------------------------|
E|-3------------------------------------------------------------|

E|---------2--------------3-------------------------------------|
B|-----------2--------------3-----------------------------------|
G|------4------4--------------4---------------------------------|
D|----4----------------5--------5-------------------------------|
A|--2----------------5------------------------------------------|
E|-----------------3--------------------------------------------|


Continue Tocando com a Musica...

  Please come now, I think I'm falling
  I'm holding on to all I think is safe
  It seems I found the road to nowhere
  And I'm trying to escape

  I yelled back when I heard thunder
  But I'm down to one last breath
  And with it let me say
  Let me say

D             F#
  Hold me now
      Bm                       G
  I'm six feet from the edge and I'm thinking
D                F#
  Maybe six feet
        Bm     G
  Ain't so far down

Repetir Intro
Continuar tocando com a Musica

  I'm looking down, now that it's over
  Reflecting on all of my mistakes
  I thought I found the road to somewhere
  Somewhere in His grace

  I cried out 'heaven save me'
  But I'm down to one last breath
  And with it let me say
  Let me say

D             F#
  Hold me now
      Bm                       G
  I'm six feet from the edge and I'm thinking
D                F#
  Maybe six feet
        Bm     G
  Ain't so far down
D             F#
  Hold me now
      Bm                       G
  I'm six feet from the edge and I'm thinking
D                F#
  Maybe six feet
        Bm     G
  Ain't so far down

Distorção e PowerChord

        Bm     G
        Bm     G
  Ain't so far down


  Em   F#  Bm  A  D
  Sad eyes follow me
                A             Bm                 G
  But I still believe there's something left for me
     Em           Bm   A   D
  So please come stay with me
                   A             Bm                 G
  'Cause I still believe there's something left for you and me

  For you and me
                 D
  For you and me


  Hold me now
  I'm six feet from the edge and I'm thinking


D             A
  Hold me now
      Bm                       G
  I'm six feet from the edge and I'm thinking
D                A
  Maybe six feet
        Bm     G
  Ain't so far down
D             A
  Hold me now
      Bm                       G
  I'm six feet from the edge and I'm thinking
D                A
  Maybe six feet
        Bm     G
  Ain't so far down


Intro Mas só as primeiras 2 linhas e vai ficando devagar =)
  Please come now, I think I'm falling
  I'm holding on all I think is safe



Versão 2
-======-

Essa música não tem baixo, quem faz o baixo é a própria guitarra....

h= hammer p= pull off /=slide

Introdução/riff 1:
   
   D                   A                Bm
E|-2----5----0h2----------------------------------------|
B|---------------3-----2-3-3h5-5p3p2h3--0---3---2h3-----|
G|-----------------2--------------------------------4---|
D|-0--0---0--0----------------------------------------4-|
A|---------------------0---0------------2-2---2-2-------|
E|------------------------------------------------------|

   G      D                            A
E|------------3-2--2---3---2-0p20------------------------|
B|--------3----------------------------------2-2/3/2-0---|
G|-----0----2------------------------------2-------------|
D|----0-0----------0-0---0---0-----------2---------------|
A|-----------------------------------4-0-----------------|
E|-3-----------------------------------------------------|

    B9               G
E|----------2----------------3---------|
B|--------2---2----------------3-------|
G|------4-------4----------4-----4-----|
D|----4-----------4------5---------5---|
A|--2------------------5---------------|
E|-------------------3-----------------|


Refrão:
    D9 F#7 B9  Gm
E|--5---2---2--3-|
B|--5---2---2--3-|
G|--7---3---3--3-|
D|--7---2---3--4-|
A|--5---4---2--4-|
E|------2------3-|

Riff 2

  Em  
E|-0--2--5--5--2--3-|
B|-0--2--5--5--2--3-|
G|-0--4--5--7--4--3-|
D|-2--4--7--7--4--5-|
A|-2--2--7--5--2--5-|
E|-0-----5--------3-|

Final
 D                   A               Bm
E|-2----5----0h2---------------------------------------|
B|---------------3-----2-3-3h5-5p3p2h3-0---3---2p3-----|
G|-----------------2-------------------------------4---|
D|-0--0---0--0---------------------------------------4-|
A|---------------------0---0-----------2-2---2-2-------|
E|-----------------------------------------------------|

   G      D                            
E|------------3-2----|
B|--------3----------|
G|-----0----2--------|
D|----0-0------------|
A|-------------------|
E|-3-----------------|



(riff 1)

Please come now I think I'm falling
I'm holding to all I think is safe
It seems I found the road to nowhere
And I'm trying to escape
I yelled back when I heard thunder
But I'm down to one last breath
And with it let me say
Let me say

(refrão)

Hold me now
I'm six feet from the edge and I'm thinking
That maybe six feet
Ain't so far down

(riff 1)

I'm looking down now that it's over
Reflecting on all of my mistakes
I thought I found the road to somewhere
Somewhere in His grace
I cried out heaven save me
But I'm down to one last breath
And with it let me say
Let me say

(riff 2)

Sad eyes follow me
But I still believe there's somthing left for me
So please come stay with me
'Cause I still believe there's something left for you and me
For you and me 
For you and me

(Final)

Hold me now
I'm six feet from the edge and I'm thinking



Quer fazer uma correção nesta cifra?







    Comentários (0) Postar um Comentário

    Nenhum comentário encontrado. Seja o primeiro!