Cifra da música: One Last Breath (versão 2) - Creed

Esse cifra de Creed já foi acessado por 1104 pessoas.

Comente

A música One Last Breath (versão 2) fez muito sucesso quando foi gravada por Creed. Quer conhecer as demais músicas? Conheça as letras das músicas gravadas por Creed e aproveite.

Veja também o vídeo da música tocada.


[por Luiz Vieira Lemes] 

-Introdução:

    D               A                  Bm              G
e|--2---5---0h2----------------------------------------------------3--|
B|--------------3-------2-3h5--2h3-2-------3---2h3p2------------3-----|
G|----------------2----2-------------2-4-----4-------4-0-----0---2----|
D|--0-0---0------------------------------4------------------0-0-------|
A|------------------0-----0----------0-2---2---2----------------------|
E|--------------------------------------------------------3-----------|

    D                   A               Bm             G
e|--2-2---3---2-0h2p0-------------------------2--------------3--------|
B|----------------------------2h3p2-2-----------3--------------3------|
G|--------------------------2---------2----4------4-------0------0----|
D|----0-0---0-------------2---------------4-4-------4----0-0-------0--|
A|--------------------4-0---------------2-----------------------------|
E|-----------------------------------------------------3--------------|

Continue tocando com a música:

 Please come now, I think I’m falling,
 I’m holding on to all I think is safe
 It seems I found the road to nowhere
 and I’m trying to escape

 I yelled back when heard thunder,
 but I’m down to one last breath
 And with it let me say... Let me say


Refrão:

D        F#       Bm                G
 Hold me now, I’m six feet from the edge and I’m thinking
D       F#             Bm     G
 Maybe six feet, Ain’t so far down


Repita a Intro e depois continue tocando com a música:

 I’m looking down, now that it’s over, reflecting on all of my mistakes
 I thought I found the road to somewhere, somewhere in his grace

 I cried out ‘heaven save me’, but I’m down to one last breath
 And with it let me say... Let me say


Refrão 2x
      Bm     G
      Bm     G
Ain’t so far down

Em        Bm     D                  A            Bm                 G
 Sad eyes follow me, but I still believe there’s something left for me
    Em          Bm        D
 So please come stay with me
                   A            Bm                 G
 ‘Cause I still believe there’s something left for you and me
                                  D
 For you and me... For you and me           
D        F#       Bm                G
 Hold me now, I’m six feet from the edge and I’m thinking


Refrão 2x


Toque esta parte junto com o final da música:

    D               A                   Bm                  G
e|--2---5---0h2-------------------------------------------------------------3--|
B|--------------3-------2-3h5--2h3-2---------3----2h3p2-----------------3------|
G|----------------2---2--------------2--4------4---------4--0------0------2----|
D|--0-0---0-------------------------------4----------------------0---0---------|
A|------------------0-----0----------0--2----2----2----------------------------|
E|-------------------------------------------------------------3---------------|

Please come now, I think I’m falling, I’m holding on all I think is safe




Quer fazer uma correção nesta cifra?







    Comentários (0) Postar um Comentário

    Nenhum comentário encontrado. Seja o primeiro!