Cifra da música: Inside Us All - Creed

Esse cifra de Creed já foi acessado por 851 pessoas.

Comente

A música Inside Us All fez muito sucesso quando foi gravada por Creed. Quer conhecer a letra dela? Veja a letra de Inside Us All e cante.

Veja também o vídeo da música tocada.


Afinação Normal (ebgdaE)

Riff 1 

e|--------------------0--------------------------| 
b|-----------------------0-----------------0-----| 
g|--------------0-----------0-----2--4--4-----4--| 
d|-----4--5--5-----5-----------------------------| 
a|-----------------------------------------------| 
E|--0--------------------------3-----------------| 

e|-0----------------------------------------------|
b|----0------------------------------8--7--5h7p5--|
g|-------4----------------------------------------|
d|----------4--5--7--5--4h5p4--4--5---------------|
a|------------------------------------------------|
E|------------------------------------------------|


Riff 2
                - - Repita esta parte 3x- -
e--------------|-----3-------3-------------|
b--------------|-------3-------3-----------|
g-5---------7--|--5------3-------3------7--|
d-5----5----7--|--5----------------5----7--|
a-3----5----5--|--3--------3-------5----5--|
E------3-------|-------------------3-------|


Riff 3: Riff de retorno para o solo

e----------------|
b----------------|
g-5--------------|
d-5----5------3--|
a-3----5------3--|
E------3----x-1--|


Solo 1

Parte 1:

e----------| Repita
b----------| 10x
g----------|
d------12--|
a-9-10-----|
E----------|

Parte 2:

e----------------------------|
b----------------------------|
g-12b--10h12p10----10-10-----|
d-12b--10h12p10-12-10-10-12--|
a---------------12-------12--|
E----------------------------|


Solo 2

Parte 1:

e----------|   NOTA: Toque variações desta parte.
b-18p17p15-|         Ouça a música para calcular
g----------|         onde as variações estão. 
d----------|         
a----------|
E----------|

Parte 2:

e-----------------------|
b--15-15----15-18-15----|
g--------17----------17-|
d-----------------------|
a-----------------------|
E-----------------------|


Sequência da Música:

*Riff 1 (4x) 

*Riff 2 

*Riff 1 (3x)

*Riff 2

*Solo 1 - Repita Parte 1 2x (Faça o Riff 3 no intervalo)

*Riff 2

*Solo 1

*Solo 2

------------Abaixo é a base-------------

Intro: Em9 G9 D

Em9            G9
When I'm all alone
                     D
And no one else is there
           
Waiting by the phone
                         Em9  
To remind me, I'm still here
                        G9
When shadows paint the scenes
                          D
Where spotlights used to fall

And I'm left wondering

Is it really worth it all?

>>Refrão
C           G              D
 There's a peace inside us all
               G/B    C                 
 Let it be your friend
             G            D          G/B  C
 It will help you carry on In the end
            G              D
 There's a peace inside us all
Solo ... C G D/F# D

              C
There's a peace
                 G       D/F#    D
There's a peace inside us all
          C             G          D
Let it be Oh, can't it be your friend?

_____________






Quer fazer uma correção nesta cifra?







    Comentários (0) Postar um Comentário

    Nenhum comentário encontrado. Seja o primeiro!