Cifra da música: What If - Creed

Esse cifra de Creed já foi acessado por 754 pessoas.

Comente

A música What If fez muito sucesso quando foi gravada por Creed. Quer conhecer a letra dela? Veja a letra de What If e cante.

Veja também o vídeo da música tocada.


	TUNING: drop d (D,A,D,G,B,E)


     INTRO:

     Play this 2 times

    E|-------------------------------------------------------------------|
    B|------------10-------8------6-----------6---5-----------5---5------|
    G|-----7-9-10----10--9---9--7---7-------7---7---7-------7---6---6----|
    D|--/9----------------------------6---6-----------5---5-----------5--|
    A|-------------------------------------------------------------------|
    D|-------------------------------------------------------------------|

     Play this 1 time

    E|-----------------------------------|
    B|------5-----------------5p3p2p0h2--|
    G|----6---7---7--7---6h7-------------|
    G|--5--------------------------------|
    A|-----------------------------------|
    D|-----------------------------------|

    E|-------------------------------------------------|
    B|-------------------------------------------------|
    G|-------------------------------------------------|
    D|--0------------------3--3-------------------2-2--|
    A|--0--------3h5--1-1--1--1----------3h5--1-1------|
    D|--0--0-3h5-----------------0-0-3h5---------------|

    E|----------------------------------------------------------|
    B|------------------------------------------------------15--|
    G|------------------------------------------------------14--|
    D|--0--------------------3--3-----------------------12------|
    A|--0----------3h5--1-1--1--1----------3h5----------12------|
    D|--0--0-3h5-0----------------0-0-3h5------0-51-0----------|

     VERSE:

     Play this 3 times

    E|------------------------------|
    B|------------------------------|
    G|-------------------------2-2--|
    D|--0-----------------3--3-2-2--|
    A|--0-----------3h5---1--1-0-0--|
    D|--0--0--3h5-0-----------------|

    E|---------------------------|
    B|-----------------------15--|
    G|---------------------------|
    D|--------------------12-----|
    A|--0-----------3h5----------|
    D|--0--0--3h5-0-----0--------|

     Play this 3 times

    E|------------------------------|
    B|------------------------------|
    G|-------------------------2-2--|
    D|--0-----------------3--3-2-2--|
    A|--0-----------3h5---1--1-0-0--|
    D|--0--0--3h5-0-----------------|

     Play this 1 time

    E|---------------------------|
    B|---------------------------|
    G|------------------------2--|
    D|--0-----------------3---2--|
    A|--0-----------3h5---1---0--|
    D|--0--0--3h5-0--------------|

     CHORUS:

    E|--------------------------|
    B|--------------------------|
    G|--3--3-3--3---5--5-5---3--|
    D|--3--3-3--3---5--5-5---3--|
    A|--1--1-1--1---3--3-3---1--|
    D|--------------------------|

    E|----------------------------------------------------------|
    B|----------------------------------------------------------|
    G|-------------------------2-2-------------------------2-2--|
    D|--0-----------------3--3-2-2--0-----------------3--3-2-2--|
    A|--0-----------3h5---1--1-0-0--0-----------3h5---1--1-0-0--| 
    D|--0--0--3h5-0-----------------0--0--3h5-0-----------------|

    E|--------------------------|
    B|--------------------------|
    G|--3--3-3--3---5--5-5---3--|
    D|--3--3-3--3---5--5-5---3--|
    A|--1--1-1--1---3--3-3---1--|
    D|--------------------------|

    E|-------------------------------------------------|
    B|-------------------------------------------------|
    G|-------------------------2-2---------------------|
    D|--0-----------------3--3-2-2--0------------------|
    A|--0-----------3h5---1--1-0-0--0-----------3h5----|
    D|--0--0--3h5-0-----------------0--0--3h5-0-----0--|

     INTERLUDE:

    E|---------------|
    B|-----------15--|
    G|---------------|
    D|--------12-----|
    A|---------------|
    D|--51-0--------|

     1ST BRIDGE:

    E|----------------------------------------------------------------------|
    B|----------------------------------------------------------3---3-3-4b--|
    G|--------------------------------------------------------1---1---------|
    D|--0-0-2-0-4-3-0-2-0-4-3-0-------4-3-0-2-4-3-0-2-0-4-3-0---------------|
    A|--------------------------0-3-4---------------------------------------|
    D|----------------------------------------------------------------------|
        pm...................................................     .....

     2ND BRIDGE:

    E|-----------------------------------------------------------------------------------|
    B|----3---3-3-4b---------------------------------------------------------3---3-3-4b--|
    G|--1---1--------------------------------------------------------------1---1---------|
    D|---------------0-0-2-0-4-3-0-2-0-4-3-0-------4-3-0-2-4-3-0-2-0-4-3-0---------------|
    A|---------------------------------------0-3-4---------------------------------------|
    D|-----------------------------------------------------------------------------------|
                     pm...................................................     .....

     Play this 2 times

    E|----------------------------------------------------------------------|
    B|----------------------------------------------------------3---3-3-4b--|
    G|--------------------------------------------------------1---1---------|
    D|--0-0-2-0-4-3-0-2-0-4-3-0-------4-3-0-2-4-3-0-2-0-4-3-0---------------|
    A|--------------------------0-3-4---------------------------------------|
    D|----------------------------------------------------------------------|
        pm...................................................     .....

     Play this 1 time

    E|-------------------------------------------------------------|
    B|----------------------------------------------------------3--|
    G|--------------------------------------------------------1----|
    D|--0-0-2-0-4-3-0-2-0-4-3-0-------4-3-0-2-4-3-0-2-0-4-3-0------|
    A|--------------------------0-3-4------------------------------|
    D|-------------------------------------------------------------|
        pm.....................................................

     3RD BRIDGE:

    E|---------------------------------------------------------|
    B|----------------------------------------------------3/4--|
    G|----------------------------------------------------2/3--|
    D|--0-0-2-0-4-3-0--2-0-4-3-0-0-3-4-0--4-3-0-2-4-3-0-2-0-0--|
    A|--0-0-2-0-4-3-0--2-0-4-3-0-0-3-4-0--4-3-0-2-4-3-0-2-0----|
    D|--0-0-2-0-4-3-0--2-0-4-3-0-0-3-4-0--4-3-0-2-4-3-0-2-0----|


Quer fazer uma correção nesta cifra?







    Comentários (0) Postar um Comentário

    Nenhum comentário encontrado. Seja o primeiro!