Cifra da música: Something - Beatles

Esse cifra de Beatles já foi acessado por 2389 pessoas.

1.00 / 5 - 2
Comente

A música Something fez muito sucesso quando foi gravada por Beatles. Quer conhecer a letra dela? Veja a letra de Something e cante.

Veja também o vídeo da música tocada.


Intro

*A  B  A

Eb   G


C                        Cmaj7
Something in the way she moves
C7                        F      *F  E
Attracts me like no other lover
D                D7      G
Something in the way she woos me
Am                        AminMaj 7
I don't want to leave her now
    Am7                 D9
You know I believe, and how

Somewhere in her smile she knows
That I don't need no other lover
Something in her style that shows me
I don't want to leave her now
You know I believe, and how


A             Amaj7           F#m    E
You're asking me will my love grow
        D     G       A     G#   F#   E   C#   B   A
I don't know, I don't know
A          Amaj7             F#m    E
You stick around, now it may show
        D     G       A     G#   F#   E   C#   B   A
I don't know, I don't know

Solo

Something in the way she knows
And all I have to do is think of her
Something in the things she shows me
I don't want to leave her now
You know I believe, and how


Intro

(^) Slide Up  () Slide Down  (h) Hammer On  (p) Pull Off  (b) Bend

E|-----------------------------------------------------------
B|---10--13b-10---11-12-13-----------------------------------
G|-----------------------------------------------------------
D|-----------------------------------------------------------
A|-----------------------------------------------------------
E|-----------------------------------------------------------

Solo

E|-----------------------------------------------------------
B|--------8--------------8^10--10--8--------------------------
G|---7h9------9-----7h9--------------9-----------------------
D|-----------------------------------------------------------
A|-----------------------------------------------------------
E|-----------------------------------------------------------

E|-----------------------8--8--10p8--12p10-------------------
B|--------8h10p8--10^11---------------------13--10-----------
G|---7h9-----------------------------------------------------
D|-----------------------------------------------------------
A|-----------------------------------------------------------
E|-----------------------------------------------------------

E|---------8--8----------------------------------------------
B|---8^10--------------8--85--------------------------------
G|----------------7^9----------2-----------------------------
D|-----------------------------------------------------------
A|-----------------------------------------------------------
E|-----------------------------------------------------------

E|--------------------7p5---7p5--7p5-----------------12-11-10
B|--------------7--7------------------8-----13-12p11---------
G|--42---5^7----------------------------12------------------
D|-----------------------------------------------------------
A|-----------------------------------------------------------
E|-----------------------------------------------------------

E|------------------------12--10--8--10--8-------------------
B|--------------------8---------------------10---------------
G|---7b5---7b5---7b5-----------------------------------------
D|-----------------------------------------------------------
A|-----------------------------------------------------------
E|-----------------------------------------------------------

E|-----------------------------------------------------------
B|---10--12b-10---11-12-13-----------------------------------
G|-----------------------------------------------------------
D|-----------------------------------------------------------
A|-----------------------------------------------------------
E|-----------------------------------------------------------


Correção: João ([email protected])
Correção: nichollas ([email protected])


Quer fazer uma correção nesta cifra?








    Comentários (0) Postar um Comentário

    Nenhum comentário encontrado. Seja o primeiro!