Cifra da música: She said She said - Beatles

Esse cifra de Beatles já foi acessado por 1227 pessoas.

Comente

A música She said She said fez muito sucesso quando foi gravada por Beatles. Quer conhecer a letra dela? Veja a letra de She said She said e cante.

Veja também o vídeo da música tocada.


Tom: D

Intro:
F: |--------------------0-----|
C: |-----0--2-3--2-3----------|
G#:|--2--------------------2--|
D#:|--------------------------|
A#:|--------------------------|
F: |--------------------------|

...is like to be dead
F: |-----------------------------2----|
C: |--------------------0--2-3------2-|
G#:|-----------------2----------------|
D#:|----------------------------------|
A#:|----------------------------------|
F: |----------------------------------|

...it is to de sad
F: |------------------------------0----|
C: |----------------0--2-3--2-3------2-|
G#:|-------------2---------------------|
D#:|-----------------------------------|
A#:|-----------------------------------|
F: |-----------------------------------|

...I never belong
F: |---------------------------------------------|
C: |-----------------------------0---------------|
G#:|----------------4b--4--2--0-----0------0---2-|
D#:|-------------------------------------2---2---|
A#:|---------------------------------------------|
F: |---------------------------------------------|




Quer fazer uma correção nesta cifra?








    Comentários (0) Postar um Comentário

    Nenhum comentário encontrado. Seja o primeiro!