Cifra da música: Nowhere man - Beatles

Esse cifra de Beatles já foi acessado por 1446 pessoas.

Comente

A música Nowhere man fez muito sucesso quando foi gravada por Beatles. Quer conhecer a letra dela? Veja a letra de Nowhere man e cante.

Veja também o vídeo da música tocada.


E           B
He's a real nowhere man
A              E
Sitting in his nowhere land
F#m7           Am                E
Making all his nowhere plans for nobody

Riff:
e|-----------------|
B|--0--------------|
G|--2---2-1--------|
D|--2-------2------|
A|------------2----|
E|-----------------|

E              B7
Doesn't have a point of view
A                    E
Knows not where he's going to
F#m        Am               E
Isn't he a bit like you and me

        G#m         A
Nowhere man, please listen
          G#m              A
You don't know what you're missing
        G#m      F#m      A              B
Nowhere man, the world is at your command


Solo:

     E       B        A          E       F#m7    Am     E    (Harmônico)
e|---0-0--------0-2---0--------------------------------------------H12-|
B|---0-0-0---4----4---2-2----------0-----------------------------------|
G|---1---1---4--4-4---2---2---2--1-2-1---2-2-----2-2-------------------|
D|---2-------4--------0-------2--2-2-2---2-2-4---2-2-------------------|
A|-------------------------------2-------0-------0----3----------------|
E|-------------------------------------------------------8-7-7---7/0---|

He's as blind as he can be
Just sees what he wants to see
Nowhere man can you see me at all?

Nowhere man, don't worry
Take your time, don't hurry
Leave it all till somebody else lends you a hand



OBS.: Acordes tocados pela guitarra base na música

     (EADGBe)
E     XX2454  (acorde de D duas casas à frente)
F#m7  244252
F#m   244222
G#m   355333
Am    577555
A     542244  (acorde de G duas casas à frente)
B     X24442

___________________________________________


Quer fazer uma correção nesta cifra?








    Comentários (0) Postar um Comentário

    Nenhum comentário encontrado. Seja o primeiro!