Cifra da música: Norwegian Wood (This bird has flown) - Beatles

Esse cifra de Beatles já foi acessado por 1728 pessoas.

Comente

A música Norwegian Wood (This bird has flown) fez muito sucesso quando foi gravada por Beatles. Quer conhecer as demais músicas? Conheça as letras das músicas gravadas por Beatles e aproveite.

Veja também o vídeo da música tocada.


Tocar com “Capo” na segunda casa do instrumento.

    D + Solo da Cítara (veja o fim da tablatura)
e|------2-2-2-------------------2-2-2----------------|
B|--3---3-3-3---3---3---3-------3-3-3-------3--------|
G|--2---2-2-2---4---2---0---2---2-2-2---0---0---2----|
D|--0-----------------------4-----------2-------4----|
A|---------------------------------------------------|
E|---------------------------------------------------|
    I          once had a   girl,       or should I

    D           C       G   D
e|------2-2-2-------------------2-2-2-2-----2--------|
B|--3---3-3-3-------3-------3---3-3-3-3-----3--------|
G|--2---2-2-2-------0-------2---2-2-2-2-2---2--------|
D|--0-------------------0---0-----------0------------|
A|--------------3-------2---0------------------------|
E|---------------------------------------------------|
     say,       she once had me;

She showed me her room isn't it good, Norwegian wood.

-----------------------------------------------------
 
    Dm
e|--1---1-1-1---1---0-0-0---0------------------------|
B|--3---3-3-3---3---3-3-3---3---3-3-3----------------|
G|--2---2-2-2---2---0-0-0---0---2-2-2---2---0---2----|
D|--0-----------0-----------0-----------3---0---3----|
A|--0-----------0-----------0------------------------|
E|---------------------------------------------------|
She asked me  to stay and she told me to  sit an- y -

    G
e|--3---3-3-3-3-----3-3-3-3-----3-3-3-3-----3--------|
B|--3---3-3-3-3-----3-3-3-3-----3-3-3-3-----3--------|
G|--0---0-0-0-0-----0-0-0-0-----0-0-0-0-----0--------|
D|--0---0-0-0-0-0---0-0-0-0-----0-0-0-0-0---0--------|
A|--2-------------------------------------------0----|
E|--3-----------------------3------------------------|
   where.                                       So

    Dm
e|--1---1-1-1---1---0-0-0---0------------------------|
B|--3---3-3-3---3---3-3-3---3---3-3-3----------------|
G|--2---2-2-2---2---0-0-0---0---2-2-2---2---0---2----|
D|--0-----------0-----------0-----------3---0---3----|
A|--0-----------0-----------0-----------0------------|
E|---------------------------------------------------|
    I looked a round and I noticed there was-n't  a
 
      Em7                     A7
e|--0---0-0-0-0-----0-----0-0---0-0-0-0-0------------|
B|--3---3-3-3-3-----3-----3-2---2-2-2-2-2------------|
G|--0---0-0-0-0-----0-----0-0---0-0-0-0-0------------|
D|--2---2-2-2-2-2-----------2---2-2-2-2-2------------|
A|--2-----------2-----------0-----------0------------|
E|---------------------------------------------------|
       chair.

------------------------------------------------------ 

   I sat on a rug biding my time, drinking her wine
   We talked until two, and then she said “It’s time for bed”

   She told me she worked in the morning and started to laugh
   I told her a I didn’t crawled off to sleep in the bath

   And, when I awoke, I Was alone, this bird has flown
   So, I lit a fire, isn’t it good, Norwegian wood

Encerramento:

      D
e|---------------------------------------------------|
B|--3---3-3-3---3---3---3-------3-3-3-------3--------|
G|--2---2-2-2---4---2---0---2---2-2-2---0---0---2----|
D|--0-----------------------4-----------2-------4----|
A|---------------------------------------------------|
E|---------------------------------------------------|

      D           C       G   D
e|---------------------------------------------------|
B|--3---3-3-3-------3-------3------------------------|
G|--2---2-2-2-------0-------2------------------------|
D|--0-------------------0---0------------------------|
A|--------------3-------2---0------------------------|
E|---------------------------------------------------|

Solo da Cítara:

(Considerando que o instrumento esteja com o Capo na
segunda casa, para tocar sem ele, basta tocar a música
duas casas a frente)

e|---------------------------------------------------|
B|-2---2/4/2---------------------0-------------------|
G|------------5-4---2-5-4-0--------------------------|
D|---------------------------2/3---2-0---------------|
A|---------------------------------------------------|
E|---------------------------------------------------|


_______________________________________________________________________


Quer fazer uma correção nesta cifra?








    Comentários (0) Postar um Comentário

    Nenhum comentário encontrado. Seja o primeiro!