Cifra da música: Lady Madona - Beatles

Esse cifra de Beatles já foi acessado por 1475 pessoas.

Comente

A música Lady Madona fez muito sucesso quando foi gravada por Beatles. Quer conhecer as demais músicas? Conheça as letras das músicas gravadas por Beatles e aproveite.

Veja também o vídeo da música tocada.


Baixo:
E-----------------------------------------------------------------
B-----------------------------------------------------------------
G-----------------------------------------------------------------
D-------------4-7---------------4-7----------------------6-6-8----
A-------4-5-5-------------4-5-5------------4-5-5-7-7-8-8----------
E-5-5-7------------5-5-7-------------5-5-7------------------------

2°parte:
E-----------------------------------------------------------------------------------------------
B-----------------------------------------------------------------------------------------------
G-----------------------------------------------------------------------------------------------
D-----------------------------------------------2-2---------2-------------------2-----2---------
A-5-5-3-3-2-2-------------2-2-------3-3-2-2-3-3---------3-5---5-3-----5-5-...-----5-3-----------
E-------------5-5-3-3-5-5-----5-3-------------------5-5-----------5-----------------------------



 A      D      A                D
Lady Madonna, children at your feet.
 A              D           F     G  A
Wonder how you manage to make ends meet.
    A          D     A                D
Who finds the money when you pay the rent.
 A                  D     F   G      A
Did you think that money was heaven sent?

 Dm                             G
Friday night arrives without a suitcase.
 C                             Am
Sunday morning creeping like a nun.
 Dm                                    G7
Monday's child has learned to tie his bootlace.
 C    Bm       E7
See how they'll run.

Lady Madonna, baby at your breast.
Wonder how you manage to feet the rest.
Lady Madonna, lying in your bed.
Listen to the music playing in your head.

Tuesday afternoon is never ending,
Wednesday morning papers didn't come.
Thursday night your stockings needed mending.
See how they'll run.

Lady Madonna, children at your feet.
Wonder how you manage to make ends meet





Quer fazer uma correção nesta cifra?








    Comentários (0) Postar um Comentário

    Nenhum comentário encontrado. Seja o primeiro!