Cifra da música: It´s only love - Beatles

Esse cifra de Beatles já foi acessado por 1179 pessoas.

Comente

A música It´s only love fez muito sucesso quando foi gravada por Beatles. Quer conhecer a letra dela? Veja a letra de It´s only love e cante.

Veja também o vídeo da música tocada.


Intro: [C-Am-C-Am]
e| - --------------------
B| - ---1--0-------------
G| - ----------2-0-------
D| - ----------------2---
A| - --------------------
E| - --------------------


  [C]I get h[Em]igh when [Bb]i see yo[F]u go b[Gy,  my-oh-my
   W[C]hen you [Em]sigh my [Bb]my ins[F]ide just [G]flies, butterflies  
  Wh[F]y am i so s[G]hy when i'm bes[C]ide you[Am]
  It's only lo[Bb]ve and that is a[G]ll
  Why should i fe[C]el the way i d[Am]o?
  It's only lo[Bb]ve and that is [G]all
  But it's so ha[F]rd, loving y[G]ou.

   Is it right that you and i should fight every night
   Just the sight of you makes night time bright, very bright 
   Haven't i the right to make it up, girl
   It's only love and that is all,
   Why should i feel the way i do?
   It's only love and that is all
   But it's so h[F]ard, loving y[G]ou,
   Yes it's s[F]o hard, loving yo[G]u, loving yo[C]u.[Am][C][Am][C]

SOLO VOCAL:
e| - ------------------------------------------
B| - ---1---3---0--------1---------------------
G| - ----------------0-3----2----0---0-2-0-----
D| - ---------------------------3--------------
A| - ------------------------------------------
E| - ------------------------------------------

e| - ------------------------------------------
B| - --1---------------------------------------
G| - -------2----------0--------0-----2---0----
D| - -----------3--0---------2----2------------
A| - ------------------------------------------
E| - ------------------------------------------
         'why am I so shy...'

e| - --------0-1---0--------------------0-------------
B| - --1-3-----------3-1-0----0-1-3------3-1-0--------
G| - -----------------------------------------------2-
D| - -------------------------------------------------
A| - -------------------------------------------------
E| - -------------------------------------------------
         'it's only love and that's all...'


Quer fazer uma correção nesta cifra?








    Comentários (0) Postar um Comentário

    Nenhum comentário encontrado. Seja o primeiro!