Cifra da música: If I Needed Someone - Beatles

Esse cifra de Beatles já foi acessado por 1369 pessoas.

Comente

A música If I Needed Someone fez muito sucesso quando foi gravada por Beatles. Quer conhecer a letra dela? Veja a letra de If I Needed Someone e cante.

Veja também o vídeo da música tocada.


De: George Harrison
Intro: 2x Riff 1

OBS.: A Guitarra Solo é tocada com capo na 7ª casa

A7 + Riff 2
If I needed someone to love
                                    G/A
you're the one that I'd be thinking of
       A7 + Riff 1
If I needed Someone

A7 + Riff 2
If I had some more time to spend
                                  G/A
then I guess I'd be with you, my friend
       A7 + Riff 1
If I needed Someone

	  Em               F#7                              
	Had you come some other day
	                        Bm
	then it might not have been like this
	  Em               F#7            Bm   E + Riff 3
	But you see now I'm too much in love

A7 + Riff 2
Carve your number on my wall and
                              G/A
aybe you will get a call from me
       A7 + Riff 1
If I needed Someone


Aaaah... (Solo de Guitarra)


(Repete Tudo)
Encerramento: A

-------- Acordes --------

    Guitarra Base  |  Guitarra Solo
A7     x02020           (Riffs)
G/A    x00003          x32030
Em     022000          x02210 (Am)
F#7    xx4320          x21202 (B7)
Bm     xx4432          022000 (Em)
E      022100           (Riff 3)
A      x02220          xx0230

-------- Riffs e Solo --------

Riff 1:
  A7
e|-----------0-----|----3---2---0-----|
B|---3---1-------1-|h3--------------3-|
G|-----------------|------------------|
D|-0---0---0---0---|(0)---0---0---0---|
A|-----------------|------------------|
E|-----------------|------------------|

Riff 2:
  A7                                                                 G/A
e|-------0---2---3-|---2---0---------|-------0---2---0-|---2---3---2---0-|
B|---3-------------|-----------3---3-|---3-------------|---------------3-|
G|-----------------|-----------------|-----------------|---------------0-|
D|-0---0---0---0---|-0---0---0---0---|-0---0---0---0---|-0---0---0---0-2-|
A|-----------------|-----------------|-----------------|---------------3-|
E|-----------------|-----------------|-----------------|-----------------|

Riff 3:
   E
E|-----------0-----|
B|---2---3---------|
G|---------------2-|
D|-----------------|
A|-0---0---0---0---|
E|-----------------|

Solo:

  A7                                            G/A            Riff 1
e|---5---3---2---0-|---2---3---2-----|         |-0-|-0-----3-|
B|-----------------|-----------------|         |-3-|-3--1----|
G|-----------------|-----------------| Repete  |-0-|-0-------|
D|-0---0---0---0---|-0---0---0-------|   2x    |-2-|---------|
A|-----------------|-----------------|         |---|---------|
E|-----------------|-----------------|         |---|---------|



Quer fazer uma correção nesta cifra?








    Comentários (0) Postar um Comentário

    Nenhum comentário encontrado. Seja o primeiro!