Cifra da música: I Feel Fine - Beatles

Esse cifra de Beatles já foi acessado por 1277 pessoas.

Comente

A música I Feel Fine fez muito sucesso quando foi gravada por Beatles. Quer conhecer a letra dela? Veja a letra de I Feel Fine e cante.

Veja também o vídeo da música tocada.


Versão 1
-======-

Intro: D C G

       Asus4               Gsus4            G#sus4  
e|-----------------|-----------------|-------------------|
B|---------8-7-5-7-|---------6-5-3-5-|-------------------|
G|--7-7-5----------|--5-5-3----------|-----------5-4-2-4-|
D|-------7---------|-------5---------|---5-5-3-----------|
A|5----------------|3----------------|---------5---------|
E|-----------------|-----------------|-3-----------------|


G
Baby's good to me, you know, 
                                     D
she's happy as can be, you know, she said so.
                 C7		    G	
I'm in love with her and I feel fine.
G  
Baby says she's mine, you know, 
                                         D
she tells me all the time, you know, she said so.
                 C7               G
I'm in love with her and I feel fine.


   G      Bm        C               D7
   I'm so glad that she's my little girl.
   G        Bm          C7              D7
   She's so glad, she's telling all the world.

         G 
That her baby buys her things, you know, 
                                         D
he buys her diamond rings, you know, she said so.
D7                 C7              G
She's in love with me and I feel fine.
D7                 C7              G
She's in love with me and I feel fine.


{Chords}

_________________

 



Versão 2
-======-
Intro: Riff_D / Riff_C / Riff_G / Riff_G

G  Riff G
Baby's good to me, you know, 
 Riff_G                                    D Riff 1
she's happy as can be, you know, she said so.
Riff 2              C7		    G Riff G	
I'm in love with her and I feel fine.
G   Riff G 
Baby says she's mine, you know, 
 Riff G                                     D Riff 1
she tells me all the time, you know, she said so.
 Riff 2           C7               G
I'm in love with her and I feel fine.


   G      Bm        C               D7
   I'm so glad that she's my little girl.
   G        Bm          C7              D7
   She's so glad, she's telling all the world.

         G Riff G
That her baby buys her things, you know, 
   Riff G                                     D
he buys her diamond rings, you know, she said so.
D7                 C7              G
She's in love with me and I feel fine.
D7                 C7              G
She's in love with me and I feel fine.

(Solo:)


--- Riffs e Solos ----

O riff é tocado por duas guitarras na música, para ficar mais fácil de tocar em uma guitarra, afine sua corda E em Eb e toque os baixos uma casa à frente. Neste caso, segure o dedo na corda E durante todo o Riff.

Existem diversas maneiras de tocar, ao invés de tentar reproduzir com exatidão a música original, toque o q vc achar q soa melhor.

Os riffs mostrados abaixo são um bom ponto de partida. Sinta-se livre para modificá-los.

  Riff D				    
 e|-------------------------------|
 B|-------------------------------|
 G|---------------12--11--9---11p9|
 D|---12-12-10--------------------|
 A|------12----12-----------------|
 E|-10----------------------------|

 Riff C				    
e|----------------------------|
B|----------------------------|
G|---------------10--9--7--7p9|
D|----10-10-8-----------------|
A|-------10---10--------------|
E|--8-------------------------|

  Riff G
e|-----------------------|
B|-----------------------|
G|------------5--4--2-4p2|
D|----5-5-3--------------| 
A|------5---5------------| 
E|--3--------------------| 

  Riff 1		     
E|---------------------|
B|-------7-8-7-5-7p5---|
G|---7-7---------------|
D|---------------------|
A|-5-------------------|
E|---------------------|

  Riff 2			     
e|----------------------|
B|----------------------|
G|----7-7-5-----5-5-3---|
D|----------------------|
A|--5-------5-3-------3-|
E|----------------------|

  Solo
e|------------------------------|
B|------------------------------|
G|-----6-----8------6-----------|
D|-5/7---7/9----5/7---7/5--3----|
A|---------------------------5--|
E|------------------------------|





Quer fazer uma correção nesta cifra?








    Comentários (0) Postar um Comentário

    Nenhum comentário encontrado. Seja o primeiro!