Cifra da música: Hey Bulldog - Beatles

Esse cifra de Beatles já foi acessado por 1484 pessoas.

Comente

A música Hey Bulldog fez muito sucesso quando foi gravada por Beatles. Quer conhecer a letra dela? Veja a letra de Hey Bulldog e cante.

Veja também o vídeo da música tocada.


Lennon/McCartney

intro:
    B7                      F#m
D --------0-----2-----3--4--------0-----4-----3--2----
A --2--2-----2-----2--------2--2-----2-----2----------   3x
E ----------------------------------------------------
obs: na 1ª vez só o riff de introdução, nas 2ª e 3ª vezes
com uma guitarra fazendo a base: B7 F#m

B7        F#m
Sheep dog standing in the rain 
B7        F#m
Bull frog doing it again 
A            F#m
Some kind of happiness is 
E                      E7
measured out in miles 
A             F#m
What make you think you're 
B7
something special when you smile 

B7        F#m
Childlike no one understand 
B7         F#m
Jack knife in your sweaty hands 
A            F#m
Some kind of innocence is 
E                      E7
measured out in years 
A              F#m
You don't know what it's like 
B7
to listen to you fears 

refrão:
     Bm   Bm(#5)  Bm6  Bm7         Em   Em(#5) Em6   Em7
e ----------------------------   ---0-----0-----0-----0---
B ----------------------------   ---0-----1-----2-----3---
G ---7------7------7------7---   ---0-----0-----0-----0---
D ---9------9------9------7---   ---2-----2-----2-----2---
A ---9------10-----11-----9---   ---2-----2-----2-----2---
E ---7------7------7------7---   ---0-----0-----0-----0---

Bm       Bm(#5)   Bm6
 You can talk to me
Bm7             Em  Em(#5)
 You can talk to me 
Em6                Em7
You can talk to me 
Bm                        Em        B7
If you're lonely, you can talk to me 

(solo)

B7      F#m
Big man walking in the park 
B7     F#m
Wigwam frightened of the dark
A            F#m
Some kind of solitude is 
E                     E7
measured out in you 
A             F#m          B7
You think you know but you haven't got a clue 

refrão:
Bm       Bm(#5)   Bm6
 You can talk to me
Bm7             Em  Em(#5)
 You can talk to me 
Em6                Em7
You can talk to me 
Bm                        Em        B7
If you're lonely, you can talk to me 

    B7                      F#m
D --------0-----2-----3--4--------0-----4-----3--2----
A --2--2-----2-----2--------2--2-----2-----2----------   2x
E ----------------------------------------------------

    B7                      F#m
D --------0-----2-----3--4-----------------------------
A --2--2-----2-----2--------------0-----4-----3--2--0--
E --------------------------2--2-----2-----2-----------

(B7 F#m)
Hey Bulldog
Hey Bulldog...



 


Quer fazer uma correção nesta cifra?








    Comentários (0) Postar um Comentário

    Nenhum comentário encontrado. Seja o primeiro!