Cifra da música: Get Back - Beatles

Esse cifra de Beatles já foi acessado por 1428 pessoas.

Comente

A música Get Back fez muito sucesso quando foi gravada por Beatles. Quer conhecer a letra dela? Veja a letra de Get Back e cante.

Veja também o vídeo da música tocada.


Versão 1
-======-

Verse 1:
[C]Jo Jo was a man who thought he was a loner
[F]But he knew he couldn't last
[C]Jo Jo left his home in Tucson, Arizona
[F]For some California grass

Chorus:
[C]Get back, get back, get [F]back to where you once belonged
[C]Get back, get back, get [F]back to where you once belonged

(organ solo)

(Chorus)

Verse 2:
[C]Sweet Lorreta Martin thought she was a woman
[F]But she was another man
[C]All the girls around her said she's got it coming
[F]But she gets it while she can

(Chorus)

(Guitar solo)

(Chorus)

(this part is spoken)
[C]Get back Lorreta
[F]Your mommy is waiting for you
[C]Wearin' her high heel shoes and her low neck sweater
[F]Get back home Lorreta

(Chorus)

(Chorus)


 




Versão 2
-======-

Intro:

Guitarra Base: Repete x022xx
Guitarra Solo: Repete 57xxxx

Riff Final

   A       G   D  obs.: A tab de cima é a Guitarra solo

=============================================================

 RIFFS - GUITARRA BASE

  Riff_A1         Riff_A2         Riff_A3 (x --> abafar as notas)
e|-----------------|----------------|------------------------|
B|-----------------|----------------|------------------------|
G|---2---2---2---2-|-------2------2-|-2--2-x-2-x-2-x-2-x-----|
D|-2-2-2-2-2-2-2-2-|----------------|-2--2-x-2-x-2-x-2-x-----|
A|-0---0---0---0---|-0-0-0--0-0-0---|-0--0-x-0-x-0-x-0-x-----|
E|-----------------|----------------|------------------------|

  Riff_A7         Riff_D1            Riff_D2
e|--------3------|-----------------|----------------------|
B|--------2------|-----------------|---3---3---3---3------|
G|---2----2------|---2---2---2---2-|---2---2---2---2------|
D|---2----2------|-0-0-0-0-0-0-0-0-|-0-0-0-0-0-0-0-0------|
A|-0---0---------|-----------------|----------------------|
E|---------------|-----------------|----------------------|

=============================================================

   A
A|----9--7--9--7--9--7--9-7|
E|-5--5--5--5--5--5--5--5-5|

  Riff_A1
  Jo Jo was a man who thought he was a loner

  D               A
E|-----------------------------12-------------|
B|---------------------10-12b14---14r12-10----|
G|----------------9/11---------------------11-|
D|--------------------------------------------|
A|-12--14--12--12-----------------------------|
E|-10--10--10--10-----------------------------|
  Riff_D1                    Riff_A2
  But he knew he couldn't last



   A
A|----9--7--9--7--9--7--97|
E|-0--5--5--5--5--5--5--55|
  Riff_A1
  Jo Jo left his home in Tucson, Arizona

  D                  A
E|--------------------------------12-------------|
B|------------------------10-12b14---14r12-10----|
G|-------------------9/11---------------------11-|
D|-----------------------------------------------|
A|-12-12--14--12--14-----------------------------|
E|-10-10--10--10--10-----------------------------|             
Riff_D2                  Riff_A1
 For some California grass

=============================================================

    A7                   D7            A7
E|-----------99999---------------88888---------99999-------|
B|-----------88888---------------77777---------88888-------|
G|-----------99999-(2x)----------77777---------99999-------|
D|---------9-------------------9-------------9-------------|
A|-----7-9-----------------7-9-----------7-9---------------|
E|---9-------------------9-------------9-------------------|
     Riff_A1    Riff_A3                         | Riff_A1 G D |
Get back, get back, get back to where you once belonged

    A7                   D7            A7
E|-----------99999---------------88888---------------------|
B|-----------88888---------------77777---------------------|
G|-----------99999-(2x)----------77777---------------------|
D|---------9-------------------9-------------9-------------|
A|-----7-9-----------------7-9-----------7-9---------------|
E|---9-------------------9-------------9-------------------|
     Riff A7           Riff_D1                  Riff_A1
Get back, get back, get back to where you once belonged

=============================================================

Base: 4/4 | Riff_A3 | Riff_A3 | Riff_D2 | Riff_A3 G D | (2x)

E|--------------------------14--------------------------------|
B|------10-10-10-10-12-12b14--14r12-10----10------------------|
G|-9/11--------------------------------11----------7----------|
D|---------------------------------------------7-9---10-7-10b-|
A|-------------------------------------------9----------------|
E|------------------------------------------------------------|

E|--------------------------14---------------|
B|------10-10-10-10-12-12b14--14r12-10----10-|
G|-9/11--------------------------------11----|
D|-------------------------------------------|
A|-------------------------------------------|
E|-------------------------------------------|

E|------------------------------------------------|
B|--------------------------7--5------7--5----5---|
G|----------7---5-----5------------5-------7------|
D|----7--9---------7-------------7----------------|
A|-9----------------------------------------------|
E|-----------------------------------------------0|

=============================================================

A|--7--9--7--9-|-7--9--7--9-7|12--14--12--14-|-7--9--7----|
E|--5--5--5--5-|-5--5--5--5-5|10--10--10--10-|-5--5--5----|
  Riff_A3      Riff_A1    Riff_D1                | Riff_A3 G D |
Get back, get back, get back to where you once belonged

G|----------------------------------------5-7-|
D|----------------------------------------5-7-|
A|--7--9--7----|-7--9--7----|---7--9--7---3-5-|
E|--5--5--5----|-5--5--5----|---5--5--5-------|
  Riff_A7                Riff_A1                  D
Get back, get back, get back to where you once belonged

------------------------------------------------------------
OBS.: As partes principais estão na TAB. O resto da música
  é formado pelos mesmos Riffs, com ligeiras alterações
------------------------------------------------------------

Verso 2:
Sweet Lorreta Martin thought she was a woman
But she was another man
All the girls around her said she's got it coming
But she gets it while she can

=============================================================

(Segundo Solo de Guitarra)

e|---------------------------------14------------------------|
B|------10--1010-1010-1010-12-12b14---14r12-10----10---------|
G|-9/11----------------------------------------11------------|
D|-----------------------------------------------------------|
A|-----------------------------------------------------------|
E|-----------------------------------------------------------|

e|-----------------------------------------------------------|
B|-------------------------7--5------------------------------|
G|----------7---5-----5------------5--7--5---5--7------------|
D|----7--9---------7-------------7---------7-----------------|
A|-9---------------------------------------------------------|
E|-----------------------------------------------------------|

e|--------------------------------12--12---------------------|
B|------10-10-10-10-12-12-12b14-b(14)-14r12--10--------------|
G|-9/11-----------------------------------------11-----------|
D|-----------------------------------------------------------|
A|-----------------------------------------------------------|
E|-----------------------------------------------------------|

e|-----------------------------------------------------------|
B|-12b--10-12b-10-12b-10-12b-10----12b-10--10-12b-10--10--12-|
G|---------------------------------------12---------12-------|
D|-----------------------------------------------------------|
A|-----------------------------------------------------------|
E|-----------------------------------------------------------|

=============================================================

(parte falada)
Get back Lorreta
Your mommy is waiting for you
Wearin' her high heel shoes and her low neck sweater
Get back home Lorreta



Quer fazer uma correção nesta cifra?








    Comentários (0) Postar um Comentário

    Nenhum comentário encontrado. Seja o primeiro!