Cifra da música: Don't Let Me Down - Beatles

Esse cifra de Beatles já foi acessado por 2030 pessoas.

Comente

A música Don't Let Me Down fez muito sucesso quando foi gravada por Beatles. Quer conhecer a letra dela? Veja a letra de Don't Let Me Down e cante.

Veja também o vídeo da música tocada.


Intro: Riff 1

E             F#m (Fill1)  A/B            E (Riff 1)
Don't let me down,        don't let me down 
E             F#m (Fill2)  A/B            E (Riff 1)
Don't let me down,     don't    let me down

E                              F#m7 (Riff 2)
Nobody ever loved me like she does,
        F#m/B          E7M/D#
Oh she does, yes she does

E                                          F#m (Riff 2) 
And if somebody loved me like she do me 
        F#m/B           E7M/D#
Oh she do me, yes she does

(Refrão)

                     E  (Riff 3)             
I'm in love for the first time. 
                              B7
Don't you know it's gonna last.

It's a love that lasts forever. 
                            E (Riff_1)
It's a love that had no past

(Refrão)

And from the first time that she really done me
Oh she done me, she done me good 
I guess nobody ever really done me 
Oh she done me, she done me good

(Refrão) 

Fill 1
e|---------------------------|
B|---------------------------|
G|-11--9-11-9-----9--11-9-11-|
D|-11--9-11-9-11--9--11-9-11-|
A|------------11-------------|
E|---------------------------|

Fill 2
e|-14--12-14-12-----12--14-12-14-|
B|-14--12-14-12-14--12--14-12-14-|
G|--------------14---------------|
D|-------------------------------|
A|-------------------------------|
E|-------------------------------|

Riff 1
e|----------------------------|
B|-5----5--5----5-------------|
G|-4----4--4h6--4-------2--1--|
D|-4h6-------------2h4--------|
A|----------------------------|
E|----------------------------|

Riff 2
e|-1412-12-129---9--9-7-------------------|
B|-1412-12-1210-10-10-7-75--5-52-2-4--5-|
G|--------------------------------------4--4-|
D|-------------------------------------------|
A|-------------------------------------------|
E|-------------------------------------------|

Riff 3
e|--------------------------------| 
B|--------------------------------|
G|--------------------------------|
D|---------------------------2----|
A|----7-6--7-4--7----7---7-----2--|
E|-0--------------7----4---2------|

e|--------------------------------| 
B|--------------------------------|
G|--------------------------------|
D|-/4-1--/7-4--6-2---4-1-2---1---|
A|--------------------------4---2-|
E|--------------------------------|

e|--------------------------------|
B|--------------------------------|
G|--------------------------------|
D|-/4-1--/7-4-6-2--4-1-2---1-----|
A|------------------------4---2---|
E|----------------------------0---|

___________________________________________________________


Quer fazer uma correção nesta cifra?








    Comentários (0) Postar um Comentário

    Nenhum comentário encontrado. Seja o primeiro!