Cifra da música: Day Tripper - Beatles

Esse cifra de Beatles já foi acessado por 1551 pessoas.

Comente

A música Day Tripper fez muito sucesso quando foi gravada por Beatles. Quer conhecer a letra dela? Veja a letra de Day Tripper e cante.

Veja também o vídeo da música tocada.


Riff Da introdução
|--------------------------|
|--------------------------|
|--------------------------|
|----------2-0---4---0-2---|
|---------2----2---2-------|
|-0-0-3-4------------------|
Repete...

Depois tem uma variações... 

|--------------------------|
|--------------------------|
|----------2-0---4---0-2---|
|---------2----2---2-------|
|-0-0-3-4------------------|
|--------------------------|

 
 Refrão
 
|---------------------------------------
|---------------------------------------
|----------------------------6-------4--
|--4--------7--------6-------4-------2--
|--2--------5--------4------------------

cada nota acima é tocada varias vezes !
  
E7 
Got a good reason, for taking the easy way out 
A7                 E7 
Got a good reason, for taking the easy way out 
          F# 
She was a day____ tripper, one way ticket yeah 
           A7     G#7          C#               B 
It took me so____ long to find out, and I found out 
  
refrão: 
 
She's a big teaser, she took me half the way there 
She's a big teaser, she took me half the way there 
She's a day tripper, one way ticket, yeah 
It took me so long to find out, and I found out 

solo: 

{ B7  solo esta acima!{Riff Da introdução
|--------------------------|
|--------------------------|
|--------------------------|
|----------2-0---4---0-2---|
|---------2----2---2-------|
|-0-0-3-4------------------|
Repete...

Depois tem uma variações... 

|--------------------------|
|--------------------------|
|----------2-0---4---0-2---|
|---------2----2---2-------|
|-0-0-3-4------------------|
|--------------------------|

 
 solo 1 :
  
 
|-----------------------------|
|-----------------------------|
|-----------4--2----6---2--4--|
|-4-0--1--4-------4---4-------|
|-2---------------------------|
|-----------------------------|
 
 
 solo 2 :

|--------------------------------------------------|
|-------------------------12-12-15-12-15-----------|
|---------------14---------------------------------|
|12-12----12-14----14-14---------------------------|
|------14------------------------------------------|
|--------------------------------------------------|

|-12-12full-12-------------------------------------|
|--------------15-12-------------------------------|
|--------------------------------------------------|
|--------------------------------------------------|
|--------------------------------------------------|
|--------------------------------------------------|

  
E7 
Got a good reason, for taking the easy way out 
A7                 E7 
Got a good reason, for taking the easy way out 
          F# 
She was a day____ tripper, one way ticket yeah 
           A7     G#7          C#               B 
It took me so____ long to find out, and I found out 
  
  
She's a big teaser, she took me half the way there 
She's a big teaser, she took me half the way there 
She's a day tripper, one way ticket, yeah 
It took me so long to find out, and I found out 

solo: B7
  
Tried to please her, but she only played one night stands 
Tried to please her, but she only played one night stands 
She was a day tripper, Sunday driver, yeah 
It took me so long to find out, and I found out







Ajustes na intrdução por: Gabriel Fernandes (gabriel@cifraclub.com.br)


Quer fazer uma correção nesta cifra?








    Comentários (0) Postar um Comentário

    Nenhum comentário encontrado. Seja o primeiro!