Cifra da música: Blackbird - Beatles

Esse cifra de Beatles já foi acessado por 2110 pessoas.

Comente

A música Blackbird fez muito sucesso quando foi gravada por Beatles. Quer conhecer a letra dela? Veja a letra de Blackbird e cante.

Veja também o vídeo da música tocada.


John Lennon/Paul McCartney


Intro:
E|----------------------7----7--7----7--7----7--7----
B|----0-----1-----3-----0----0--0----0--0----0--0----
G|----0-----0-----0-----0----0--0----0--0----0--0----
D|----------------------5----5--5----5--5----5--5----
A|---------------------------------------------------
E|----3--3--3--3--3--3-------------------------------

Blackbird singing...
E|-------------------7----7--7--
B|----0-----1-----3--0----0--0--
G|----0-----0-----0--0----0--0--
D|-------------------5----5--5--
A|------------------------------
E|----3--3--3--3--3-------------

Take these...
E|-----------------------------------------
B|----5-----5-----7-----7-----8-----8--8---
G|-----------------------------------------
D|-----------------------------------------
A|----3--3--4--4--5--5--6--6--7--7--7--6---
E|-----------------------------------------

All your life
E|-------------------------------
B|----7-----8-----5-------5--4---
G|----------------0----0--0--0---
D|-------------------------------
A|----5--5--6--6--3--3----3--3---
E|-------------------------------

You were only...
E|------------------------------------------------
B|----3-------3--2-------2--1-------1--0-------0--
G|----0----0--0--0----0--0--0----0--0--0----0--0--
D|------------------------------------------------
A|----2--2----2--1--1----1--0--0----0-------------
E|-------------------------------------3--3----3--

E|------------------------------------------------------------
B|-----5---3---2------2---1------1----0-------0---------------
G|-----------------0----------0------------0--0---------------
D|------------------------------------------------------------
A|-----3---2---0----------0-----------------------------------
E|------------------------------------3--3----3---------------

Blackbird,fly
E|----5--3---------------------------
B|----------6---5---3-------3----5---
G|------------------0----0--0--------
D|----3--1---------------------------
A|----------4---3---1--1----1----3---
E|-----------------------------------

E|----5--3------------------------------------------------------
B|----------6---5---3-------3--2-------2--1-------1--0-------0--
G|------------------0----0--0--0----0--0--0----0--0--0----0--0--
D|----3--1------------------------------------------------------
A|----------4---3---2--2----2--1--1----1--0--0----0-------------
E|---------------------------------------------------3--3----3--



G
Blackbird singing in the dead of night,
 C           D#°             Em      Em7+
Take these broken wings and learn to fly.
D    D4   C Cm
All your life,
G              A7              D7          G
You were only waiting for this moment to arise.

G
Blackbird singing in the dead of night,
 C           D#°             Em      Em7+
Take these sunken eyes and learn to see.
D    D4   C Cm
All your life,
G              A7              D7         G
You were only waiting for this moment to be free.

 F Em Dm C Bb C
Blackbird,fly
 F Em Dm C Bb A7        Dm7                   G
Blackbird,fly Into the light of a dark, blacknight


__________________________________________________________
Contribuição: Rui Gustavo Borba(ruigustavo@hotmail.com)
Correção: felippe pompeo antonucci (felippe@lucidas.com.br)
Correção: Sidney Ferreira (sidneyfdasilva@ig.com.br)
Correção: Jose Roberto da Silva Junior (jhure@hotmail.com)


Quer fazer uma correção nesta cifra?








    Comentários (0) Postar um Comentário

    Nenhum comentário encontrado. Seja o primeiro!