Cifra da música: Anytime At All - Beatles

Esse cifra de Beatles já foi acessado por 1082 pessoas.

Comente

A música Anytime At All fez muito sucesso quando foi gravada por Beatles. Quer conhecer as demais músicas? Conheça as letras das músicas gravadas por Beatles e aproveite.

Veja também o vídeo da música tocada.


 |             Bm  D
 | Any time at All
 |              A
 | Any time at All
 |             Bm
 | Any time at All
 |	                    G
 |  All you've got to do is call
 |     A7           D + Riff 1
 | And I'll be there


D                 F#m         
  If you need somebody to love 
Bm			Gm/Bb      
  Just look into my eyes
  D/A               A                  D                   
  I'll be there to make you feel right   
                     F#m
 If you're feeling sorry and sad
Bm                      Gm/Bb  D/A                      A
  I'd really sympathize       Don't you be sad    Just call me tonight
  D/A
  Don't you be sad
       A               D + Riff 1
  Just call me tonight

[Refrão]

(mesmos acordes da primeira Estrofe)
If the sun has faded away
I'll try to make it shine
There is nothing I won't do
if you need a shoulder to cry on
I hope it will be mine
Call me tonight
And I'll come to you

[Refrão]
Solo: A7 Bm7/A A7 A7 Bm7/A A7 G A7 G A7
[Refrão]

             G
Any time at all  
                          A
All you've got to do is call
                D + Riff 1
And I'll be there
                               E  A  D  G  B  e
OBS.: Termina com esse acorde (x  x  12 11 10 10 )

---------------------------------------------------

Riff executado pela guitarra Solo no Refrão:
e|---------------|---2---|-------------------|----------||
B|---------------|---3---|-----2---3-2---2---|----------||
G|---------------|---2---|-----2---2-2---2---|----------||
D|-------------0-|---0---|-----2---2-2---2---|----2-3-4-||
A|-2-----0-2-----|-------|-0-----0-------0---|----------||
E|---------------|-------|-------------------|----------||

Riff 1:
e|-3---2---------2---|
B|---------5-3-------|
G|-------------------|       




Quer fazer uma correção nesta cifra?








    Comentários (0) Postar um Comentário

    Nenhum comentário encontrado. Seja o primeiro!