Cifra da música: And I Love Her - Beatles

Esse cifra de Beatles já foi acessado por 1888 pessoas.

Comente

A música And I Love Her fez muito sucesso quando foi gravada por Beatles. Quer conhecer a letra dela? Veja a letra de And I Love Her e cante.

Veja também o vídeo da música tocada.


Intro:
             F#m             E6              F#m
e|-------------------------------------------------------------
B|-------------------------------------------------------------
G|-------------------------------------------------------------
D|-------------------------------------------------------------
A|------7--6--4---------7--6--4---------7--6--4----------------
E|---7---------------7---------------7-------------------------

F#m        C#m           F#m           C#m
I give her all my love    That's all I do
F#m        C#m             A             B7
And if you saw my love    You'd love her too
       E
And I love her

    F#m                          C#m
e|----------9--------------9------------9-----------9----------|
B|------10-----10------10-----10-----9-----9-----9-----9-------|
G|--11-------------11-------------9-----------9----------------|
D|-------------------------------------------------------------|
A|-------------------------------------------------------------|
E|-------------------------------------------------------------|
           She    gives  me       every     thing

F#m       C#m     F#m           C#m
And tenderly        The kiss my lover brings

    A                           B7
e|---------9-------------9--------------11---------------------
B|-----10-----10-----10-----10------10------10-----------------
G|--9-------------9-------------11-----------------------------
D|-------------------------------------------------------------
A|-------------------------------------------------------------
E|-------------------------------------------------------------
          She    brings to      me

                    E6
e|----------11------------9-----------9-----------9------------
B|------10------10-----9-----9-----9-----9-----9-----9---------
G|--11--------------9-----------9-----------9-----------9------
D|-------------------------------------------------------------
A|-------------------------------------------------------------
E|-------------------------------------------------------------
       And  I  love    her

C#m          B      C#m        G#m
A love like ours    could never die
C#m       G#m            B7
As long as I   have you near me

F#m             C#m               F#m         C#m
Bright are the stars that shine   Dark is the sky
F#m         C#m             A          B7
I know this love of mine   Will never die
        E
And I love her

Solo: 
Gm Dm Gm Dm Gm Dm Bb C7 F Gm

|------------------------------------------------------------------------|
|------------------------------------------------------------------------|
|-------9-7/10-------9-97-------9-7/10-10-7-----------------------------|
|--5-7-8--------5-7-8-------5-7-8-------------8-7-7/5-------5/7----------|
|-----------------------------------------------------5-3-5--------------|
|--------------------------------------------------------------5-3-1-1/3-|

--> Tocar arpejos já mostrados, uma casa a frente

Gm              Dm                Gm          Dm
Bright are the stars that shine   Dark is the sky
Gm          Dm              Bb         C7
I know this love of mine   Will never die
        F
And I love her

Encerramento:
Gm F Gm D
--> Tocar o Riff de Introdução junto, também uma casa a frente





Quer fazer uma correção nesta cifra?








    Comentários (0) Postar um Comentário

    Nenhum comentário encontrado. Seja o primeiro!