Cifra da música: Tora Tora - Raimundos

Esse cifra de Raimundos já foi acessado por 996 pessoas.

Comente

A música Tora Tora fez muito sucesso quando foi gravada por Raimundos. Quer conhecer a letra dela? Veja a letra de Tora Tora e cante.

Veja também o vídeo da música tocada.


 
        Afine a 6ª corda em D(1 tom abaixo) 
        3(4)  == bend da terceira à quarta casa
        15(17)== bend da 15a. casa à 17a. casa  
        p.m.  == (palm muted)Corda/Nota Abafada
         /    == Deslizar de uma nota p/outra
         ~    == Deixe a nota tocando

 Riff1 (várias vezes)
 E|------------------------------------------------|
 B|------------------------------------------------|
 G|------------------------------------------------|
 D|------------------------------------------------|
 A|------------1-1-1----------------1-1-1----------|
 D|-0-0--0-0-0-------3-5-0-0--0-0-0-------3-2-0-0--|

                                     |p.m.|
 E|---------------------------------------|
 B|---------------------------------------|
 G|---------------------------------------|
 D|---------------------------------------|
 A|--------1-1-1----------------1-1-1---0-|
 D|--0-0-0-------3(4)0-0--0-0-0---------0-|
                                                                 
 Riff2 (1X)
       |----------p.m.-----------|       |------------p.m.---------|
 E|-------------------------------------------------------------------------|
 B|-------------------------------------------------------------------------|
 G|-------------------------------------------------------------------------|
 D|-------------------------------------------------------------------------|
 A|-7--7-5-7-5-7-5-7-5-7-5-7-5-7-5--8-7--7-5-7-5-7-5-7-5-7-5-7-5-7-5--7/8-7-|
 D|-7--7-5-7-5-7-5-7-5-7-5-7-5-7-5--8-7--7-5-7-5-7-5-7-5-7-5-7-5-7-5--7/8-7-|


 Riff2b (1X)
   |----------p.m.------------|          |------------p.m.---------|
 E|----------------------------------------------------------------------|
 B|----------------------------------------------------------------------|
 G|----------------------------------------------------------------------|
 D|----------------------------------------------------------------------|
 A|-7-5-7-5-7-5-7-5-7-5-7-5-7-5--7/8-7----7-7-7-7-7-7-7-7-7-7-7-7-7------|
 D|-7-5-7-5-7-5-7-5-7-5-7-5-7-5--7/8-7----7-7-7-7-7-7-7-7-7-7-7-7-7------|
  |------repita esta parte 3 vezes----|

 'Se ela tá gemendo é porque eu sou um cara legal
  Se ela tá tremendo é que ela gostou do meu pau
  Se ela tá gritando é que ela tá querendo mais
  Se ela tá berrando é hora de meter por trás'

 Riff 3 (2X)
 |----------p.m.----------|  |----p.m.----|
E|----------------------------------------------------|
B|----------------------------------------------------|
G|----------------------------------------------------|
D|----------------------------------------------------|
A|-8-8-8-7-8-8--2-2-2-5-5-5---8-8-8-7-8-8-8--2-2--5-5-|
D|-8-8-8-7-8-8--2-2-2-5-5-5---8-8-8-7-8-8-8--2-2--5-5-|
 |-----repetir 3 vezes-----|

 'Tora Tora, é isso aí moleca doida, é que a moçada da minha área
  só para quando a bola do olho pula fora. O corpo fala tem sensor ativo,
  é o que me faz vivo, então se agacha e chupa a rola agora.
  Bye bye, não conta pro teu pai, essa é a manha da ariranha, tu diz vem
  ele não vai. Igual cipreste, só compre coisa que preste, eu tô doidão 
  eu tô à toa terra boa é do nordeste'
   
  Riff 1 (1X)

  Riff4(2X)
   |----------p.m.------------|        |----------p.m.----------|  
 E|-----------------------------------------------------------------|
 B|-----------------------------------------------------------------|
 G|-----------------------------------------------------------------|
 D|-----------------------------------------------------------------|
 A|-7-5-7-5-7-5-7-5-7-5-7-5-7-5--7/8-7--7-5-7-5-7-5--2-2-2-5-5-5----|
 D|-7-5-7-5-7-5-7-5-7-5-7-5-7-5--7/8-7--7-5-7-5-7-5--2-2-2-5-5-5----|
  
  'Se acalma meu chegado, que o homem já encomendou 10 kilos do prensado,
   e tu vai ver que é do bom. Que se eu te mostro o camarão, que eu tenho
   lá em casa meu irmão, tu vai dizer:yeah yeah yeah yeah'

  Riff 3(1X)

  'Não sei porque tu chora sempre, hoje quando o galo cantou e a nossa 
  brenfa não chegou, corte de faca no isopor. Não sei porque eu não tava
  lá quando o bicho pegou toda a minha brenfa sem pedir licença' 

  Refrão (2X)

 E|--------------------------------------------|  Obs.:As notas que estão entre
 B|-----3~---3---------------------3~----------|       colcheias [] não são   
 G|-----2~--2----------------------2~---0---0--|       tocadas na primeira vez.
 D|-----0~-------------------------0~--3---0---|       
 A|-[0]---------5-6-6-6-5-6-6-6--0----1---3----|        
 D|-[0]----3----5-6-6-6-5-6-6-6--0-------------|       
                                                       
 
 'A gritaria rindo anuncia a hora, eu tô cansado eu vou me embora
  vôo de volta pro meu lar. Volto prá casa, prá mulher e pros meus filho
  mas não largo do gatilho, essa herança é de lascar.
  Sendo animal preferi ser o predador, não sei fingir não sou ator,
  só vou querer o que quiser. O sanfoneiro toca a música da morte,
  com a minha eu abro um corte e tu sangra quanto sangue tiver' 
  
 Pequeno solo depois do Refrão
 E|--------------|
 B|--5/6--6-5-3~-|
 G|--------------|
 D|--------------|
 A|--------------|
 E|--------------|

 Riff 5(1X)
                                 |-----------------p.m.---------------|          
 E|---------------------------------------------------------------------|
 B|---------------------------------------------------------------------|
 G|-------------------------------7-7-7-7-5/7-7-7-7-5/7-7-7-7-5/7-7-7-7-|
 D|-------------------------------7-7-7-7-5/7-7-7-7-5/7-7-7-7-5/7-7-7-7-|
 A|-0-8-7-0-8-7-0-8-7-0-8-7--7--3-5-5-5-5-3/5-5-5-5-3/5-5-5-5-3/5-5-5-5-|
 D|---------------------------------------------------------------------|
                                         |-------------p.m.-----------|
 E|---------------------------------------------------------------------|
 B|---------------------------------------------------------------------|
 G|---------------------------------------------------------------------|
 D|---------------------------------------------------------------------|
 A|--7/8/7-0-7/8/7-0-7/8/7-0-7/8/7--7-7----0-0-0-0-0-0-0-0-0-0-0-0-0-0--|
 D|----------------------------------------0-0-0-0-0-0-0-0-0-0-0-0-0-0--|

 Riff 3(2X)

 'Tora Tora, ela chegou era da boa, era cheirosa manga-rosa do jeito que os
  brasiliense adora adora. Fala mais baixo se dançá tá fudido, e aperta um 
  comprido, quem aprecia comemora a tora.
  Vai Trás que é pr'eu ficar em paz, pode até ser bom demais, só que uma fina
  assim não faz. Aperta um beck do tamanho desse moleque, camarão da cabeleira
  dos cabra que toca reggae'

 Refrão(2X)

 'Como troféu de um caçador na sua parede, 37 almas na rede eu levo prá todo
  lugar.É claro que morrer de tiro ninguém gosta, então eles grudam nas minhas
  costas e ficam só me dando azar.
  Não tem problema minha cabeça tá tranquila, querem briga façam fila, eu tô aqui
  e não arredo o pé. Cabra safado em dois tempo te encho de bala, emudeço a tua 
  fala e tu sangra quanto sangue tiver'

 Solo 1(a outra guitarra toca Refrão)

 E|--------------------------------------------------------------------12-13-15~-|
 B|-10~-10/11-10-8-7-------------------10~-13-15-15(17)-15-13--15-13-15----------|
 G|-----------------7-8-7~-7/8-7-5---------------------------14------------------|
 D|--------------------------------8-7-------------------------------------------|
 A|------------------------------------------------------------------------------|
 D|------------------------------------------------------------------------------|

 Solo 2(a outra guitarra toca Riff 3)

 E|-----------------------------------------------------------------|
 B|-----------------------------------------------------------------|
 G|-----------------não consegui de jeito nenhum tirar este solo----|
 D|-----------------(se alguém conseguiu, por favor me mande)-------|
 A|-----------------------------------------------------------------|
 D|-----------------------------------------------------------------|

 Riff 1b(1X)
 E|------------------------------------------------|
 B|------------------------------------------------|
 G|------------------------------------------------|
 D|------------------------------------------------|
 A|--------0--1-1-1-------------0---1-1-1----------|
 D|-0-0--0--0-------3-5-0-0---0--0--------3-2-0-0--|

 E|-------------------------------------|
 B|-------------------------------------|
 G|-------------------------------------|
 D|-------------------------------------|
 A|-----0--1-1-1------------0----1-1-1--|
 D|-0-0--0-------3(4)0-0--0--0----------|

 Riff 1(várias vezes) e termina com D5.

__________________
Por Arthur Bueno


Quer fazer uma correção nesta cifra?







    Comentários (0) Postar um Comentário

    Nenhum comentário encontrado. Seja o primeiro!