Cifra da música: Nana Neném - Raimundos

Esse cifra de Raimundos já foi acessado por 1376 pessoas.

Comente

A música Nana Neném fez muito sucesso quando foi gravada por Raimundos. Quer conhecer a letra dela? Veja a letra de Nana Neném e cante.

Veja também o vídeo da música tocada.


Afinar 6º corda em Ré ( D ). 
 
Intro: ( Riff1 4x + Riff de passagem )

 
Riff1
E|----------------|
B|----------------|
G|----------------|
D|----------------|
A|--0-0--0—-2/3~--|
D|--0-0--0—-2/3~--|

Riff de passagem
E|-----------------------|
B|-----------------------|
G|-----------------------|
D|-----------------------|
A|--0--0-0--0--0-0-0-----|
D|--0--0-0--0--0-0—0...--|
 

 
Riff 2 
E|--------------------------|
B|--------------------------|
G|--------------------------|
D|--------------------------|
A|--0-6^--0-6^--0-6^--0—6^--|
D|--0—6^-—0-6^--0-6^--0-6^--|

Riff3
E|---------------------------|
B|---------------------------|
G|---------------------------|
D|--0--3-0-3-0-5-5-6-6-6-6~--|
A|---------------------------|
D|---------------------------| 
Riff2
Êta moleque feio 
Que não queria nanar 
Ele tinha uma chinela 
Que servia pra acalmar 

Riff1
Nana Nenê 
Que a Cuca vai pegar 
Vovó foi pra roça 
Mamãe foi passear 

Riff2
Bicho Papão sai de cima do telhado 
Deixa o moleque dormir sossegado 

Riff1
Nana Nenê 
Que a Cuca vem pegar 
Vovó foi pra roça 
Mamãe foi passear 

Solo:( Riff3 + Riff1 )juntos

Riff2
Vaca amarela 
Pula a janela 
Quem não calar a boca 
Vai entrar na chinela 

Riff1
Nana Nenê 
Que a Cuca vem pegar 
Vovó foi pra roça 
Mamãe foi passear

Feita por: Wilson Junior ( gu )




Quer fazer uma correção nesta cifra?







    Comentários (0) Postar um Comentário

    Nenhum comentário encontrado. Seja o primeiro!