Cifra da música: I Saw You Saying (That You Say That You Saw) - Raimundos

Esse cifra de Raimundos já foi acessado por 1504 pessoas.

Comente

A música I Saw You Saying (That You Say That You Saw) fez muito sucesso quando foi gravada por Raimundos. Quer conhecer a letra dela? Veja a letra de I Saw You Saying (That You Say That You Saw) e cante.

Veja também o vídeo da música tocada.


Tom: A
Intro: Bm D A  A E A

Solo (A F#m)

E|----------------------------------|----------------------------------|
B|-5-2---2--------2-2-2-2-2---------|-5-2---2--------2-2-2-2-2---------|
G|-----2------2-4-----------4-2-4-2-|-----2------2-4-----------4-2-4-2-|
D|----------4-----------------------|----------4-----------------------|
A|----------------------------------|----------------------------------|
E|----------------------------------|----------------------------------|

           A  F#m    A                      F#m
    Reconheci... a Madonna ali parada no jardim
             A  F#m          A                      F#m
    Não resisti... fui perguntar o que ela achava de mim
 C#m                        D
    Eu não sei falar inglês
 Bm                E
    Ela não entende uma palavra em português
    A                          F#m
    I saw you saying that you say that you saw
    A                          F#m
    I saw you saying that you say that you saw (I fell good)
  Bm            D  
    I feel good because you put your butt on me       
  Bm            D
    I feel good because you put your butt on me

Solo(A F#m)

E|----------------------------------5-2---2---------2----------------------------|
B|-5-2---2--------2-2-2-2-2-------------5---5-2---2---5-2-------2-2-2-2-2--------|
G|-----2------2-4-----------4-2-4-2-------------2-----------2-4-----------4-2-4-2|
D|----------4---------------------------------------------4----------------------|
A|-------------------------------------------------------------------------------|
E|-------------------------------------------------------------------------------|

 C#m                        D
    Perguntei para o meu pai
 Bm
    O que ela me disse
 E
    Ela disse, meu rapaz|
    A                          F#m
    I saw you saying that you say that you saw (I saw you saying)
    A                          F#m
    I saw you saying that you say that you saw (I fell good)
  Bm            D
    I feel good because you put your butt on me
  Bm            D
    I feel good because you put your butt on me
  Bm            D
    I feel good because you put your butt on...

Solo (F#m C#m F#m A F#m  Bm D E)

E|-----5-0-2-2-0-----------------------5-4-2p0---2-2-----2-2-----------|
B|---2-----------2-2-3-2-0-----------2---------2-----2-2-----3-3---3-5-|
G|-2-----------------------2-----2-2-----------------------------4-----|
D|---------------------------4-4---------------------------------------|
A|---------------------------------------------------------------------|
E|---------------------------------------------------------------------|

   A              F#m                   A
    The hula hula song make me feel so strong
                  F#m                    A
    The hula hula hey goodbye I'm going away
                  F#m                   A
    The hula hula song make me feel so strong
                  F#m                    Bm
    The hula hula hey goodbye I'm going away (a há)
D                               Bm
    Because you put your butt on me (a há)
D                                 Bm
    You know you put your butt on me (a há)
D                                  
    You know you put your butt on me
              A    F#m  D    E    A     A6
    Shalalala yeah yeah yeah yeah yeah


Quer fazer uma correção nesta cifra?







    Comentários (0) Postar um Comentário

    Nenhum comentário encontrado. Seja o primeiro!