Cifra da música: A Mais Pedida - Raimundos

Esse cifra de Raimundos já foi acessado por 1999 pessoas.

1.00 / 5 - 1
Comente

A música A Mais Pedida fez muito sucesso quando foi gravada por Raimundos. Quer conhecer a letra dela? Veja a letra de A Mais Pedida e cante.

Veja também o vídeo da música tocada.


Intro:

          
e||----------------------------------------------------------------------------
B||------8----8-10-8------------8----8-10-8------------8----8-10-8-------------
G||-7--9-------------9--99-7--9-------------9--99-7--9-------------9--99-7-9-7-

e|-----------
B|-----------
G|-7^9-7^9---

              


(C G Am) (2x) D  ->c/ distorção (Dica fazer powerchord abafado durante o dó)

C                          (C)
Nesse show não entra menor,
                 (C)            
Um homem censurou, tava de mau humor
F                 Dm                  Am   (G)
Não tinha dormido bem porque não levantou
C                    (C)
Pense como ia ser bom
                     (C)
Se nós fizesse um som que ultrapassasse
F                                Am
A barreira das AM, FM e dos elevador
    G            C
Aí sim, dá um selinho
                          Dm
E mostra o seio that you saw
             F                   Am                  
Quando eu te vi o meu calção se abriu
          Dm                    G                                   C       
Caiu uma lágrima (solo 1) de um olho, que se for dos dois então é namoro

Solo1 (aparece no fundo da música, nesse Dm):
|---------------------------|
|---------------------------|
|-9h10p9--9--7~---7/9--9/7~-|
|---------------------------|
|---------------------------|
|---------------------------|

Refrão
C                  F                                               
Meu cabelo é ruim, mas meu terno é de linho
C                       F                 Dm
Vou ser seu salgadinho, cê vai gostar de mim
        G             C
Se eu tocar no seu radinho
             F                     C
Choro até o fim, só pra rimar com inho
                     F                        Dm
Pois se eu ganhar 'din din' cê vai gostar de mim
        G              C
Se eu tocar no seu radinho

 - Repete Intro -

C                     (C)
Por favor, seu locutor,
               (C)                     (C)
Ao menos uma vez, melhor se fossem três
F                                        (Am  G  C) x2
Toca o nosso som aí que tu me faz feliz
D                                 (Am  G  C) x2
Se não tocar eu quebro o seu nariz

Solo 2: (C  D   F  Am   D   G)

|------------------------------------------------------------------------
|------------------------------------------------------------------------
|--------------------------------------------5---------------------------
|----------------------------7-7-7-7-5---5h7---7-5-----------------------
|-3---3-5-7-5-3----5-7-8-7-5-----------7-----------7--8-7-8-7-8-7-8-7/5~-
|---3------------5-------------------------------------------------------

-----------|--------------------------------------------------9----------
-----------|---------5-------------------10-10-10-10-8---8h10---10--8----
-----------|-5---5-7---7-5----7-9-10-9-7---------------9--------------9--
-----------|---5------------7--------------------------------------------
-7-5---5-7-|-------------------------------------------------------------
-----8-----|-------------------------------------------------------------

----------------------------------------------15--------15----------------|
------------------------10p8~--13p12~--15b(16)---15b(16)---15b(16)15--13~-|
-10-9-10-9-10-9-10-9/7~---------------------------------------------------|
--------------------------------------------------------------------------|
--------------------------------------------------------------------------|
--------------------------------------------------------------------------|

Repete Refrão

C              F
Chame, chame...se der a chame ela...
C              F  
Chame, chame...se der a chame ela...

     Dm         G             C
Só assim preu tocar no seu radinho

 - Repete Intro - 

_______________________________________________________________





Quer fazer uma correção nesta cifra?







    Comentários (0) Postar um Comentário

    Nenhum comentário encontrado. Seja o primeiro!