Cifra da música: Reggae Do Manero - Raimundos

Esse cifra de Raimundos já foi acessado por 1244 pessoas.

Comente

A música Reggae Do Manero fez muito sucesso quando foi gravada por Raimundos. Quer conhecer a letra dela? Veja a letra de Reggae Do Manero e cante.

Veja também o vídeo da música tocada.


Solo1: Bm Em  -> 4x 

e|-----------------------------------------------------|
B|-8-8-8-8-8-8p10r8-7--------8-8-8-8-8-8p10r8-7--------|
G|------------------------------------------------9-9--|
D|-----------------------------------------------------|
A|-----------------------------------------------------|
E|-----------------------------------------------------|


e|------------------------------------------------|
B|-8-8-8-8-8-8p10r8-7-----------------------------|
G|----------------------9--7-------9--7---9-7-----|
D|----------------------------9-9-------9-----9-9-|
A|------------------------------------------------|
E|------------------------------------------------|

Solo2: Bm Em  -> 4x

e|----------------------------------------|
B|-8-8-8-8-8-8p10r8-7----------------------|
G|---------------------9-7----------------|
D|-------------------------9--------------|
A|----------------------------------------|
E|----------------------------------------|


e|----------------------------------------------------|
B|-8-8-8-8-8-8p10r8-7---------------------------------|
G|----------------------9--7-------9--7---9-7--7------|
D|----------------------------9-9-------9-----9-9-----|
A|----------------------------------------------------|
E|----------------------------------------------------|

             D
Se eu uso a manga da camisa que é dobrada
                   F#m                    Bm
A calça bag vem rasgada é porque eu sou fulêro
                D                 
Seu eu vou pro centro no domingo do perfume          
                      F#m                     Bm
Eu uso um pingo que deixa fedendo o prédio inteiro
         D
Pente redondo tem cê me pergunta eu lhe respondo
        F#m         
Eu tomo pinga com a Domingas dança curtindo o Wando
          D
Eu não consigo nem levantar pra mudar o disco
          G
Um bicho velho cheio de risco que só serve pra abanar
D                
Eu tô comendo bem no restaurante morte lenta
         G
A cozinheira é uma nojenta que vive limpando a venta
        Bm                                     A
No avental eu tô passando mal tô com saudade mainha



Bm      Em                Bm
Oh! mãe vê se manda um dinheiro 
                 D
Que eu tô no banheiro               Em
E não tem nem papel pra cagar   (não tem, não tem)

Bm      Em                  Bm
Oh! Mãe esse seu filho é maneiro
               D
Aqui no estrangeiro nenhuma mulher
              Em
qué me dá   (ninguém, ninguém)



Solo2...



F#m               Bm     
Meu cabelo eu não sei que rapô
F#m                   Bm 
Entupiu a privada entupiu ai meu Deus
G    D  Em      
 Oh oh      ah ah...uh


D
Cê é bnitch
Cê é bnitch     F#m
Cê é bnitch demais
                D
Ocê é um cara manêro
                   F#m
Cê é bnitch... demais
                           D
Bnitch mais que o munda inteiro


solo: Bm Em D Em

repete  -> refrão
Se quiser repete  -> solo1



Quer fazer uma correção nesta cifra?







    Comentários (0) Postar um Comentário

    Nenhum comentário encontrado. Seja o primeiro!