Cifra da música: Sanidade - Raimundos

Esse cifra de Raimundos já foi acessado por 640 pessoas.

Comente

A música Sanidade fez muito sucesso quando foi gravada por Raimundos. Quer conhecer a letra dela? Veja a letra de Sanidade e cante.

Veja também o vídeo da música tocada.


Versão 1:

Intro
E|-------------------------------------------------------|
B|-------------------------------------------------------|
G|-------------5------------------5-5-5-5-5-7-7-7-4-5-4--|
D|--2-2--2-2-2-5-5-5-7-2-2--2-2-2-5-5-5-5-5-7-7-7-4-5-4--|
A|--2-2--2-2-2-3-5-5-5-2-2--2-2-2-3-3-3-3-3-5-5-5-2-3-2--|
E|--0-0--0-0-0---3-3-5-0-0--0-0-0------------------------|
                                 |     abafado     |


E|----------------------------------------------------------------------------------------------|
B|----------------------------------------------------------------------------------------------|
G|-------------5------------------5------------------5------------------5-----------------------|
D|--2-2--2-2-2-5-5-5-7-2-2--2-2-2-5-5-5-4-2-2--2-2-2-3-5-5-7-2-2--2-2-2-3-5-5-4-7-7-7-7-7-7-7-7-|
A|--2-2--2-2-2-3-5-5-5-2-2--2-2-2-3-5-5-4-2-2--2-2-2-3-5-5-5-2-2--2-2-2-3-5-5-4-7-7-7-7-7-7-7-7-|
E|--0-0--0-0-0---3-3-5-0-0--0-0-0---3-3-2-0-0--0-0-0---3-3-5-0-0--0-0-0---3-3-2-5-5-5-5-5-5-5-5-|
                                                                               |    abafado    |

C             B        A
Você pode até achar tudo normal

           C          B       A
Só que não é bem assim

C        B     A
O que parece bom pra você

         C     B       A
Pode não parecer pra mim


G                  A
Você fala em sanidade
 
     G            A
Como quem pode fazer

      G                A
Você tenta falar a verdade

            F              G
Só que não tem nada pra dizer


C      B     A
Suas idéias doentias

   C          B    A
Um dia te destruirão

C             B     A
Eu vou ver o seu império cair

     C              B        A
E sorrir sem ter nenhum perdão


G                   A
Achou que podia me humilhar

     G             A
Por trás de uma razão

       G               A
Uma razão que um dia acaba

           F                G
Quando o poder sai de suas mãos



Refrão:
A             C A   G  F 
Você não sabe o que dizer

A             C A   G  F
Você não sabe o que dizer

A             C A   G  F
Você não sabe o que dizer

                B
Só me resta esperar



Você pode até achar tudo normal...



Solo
A Base toca o refrão 2x


Refrão 2X


Final

E-|--------------------------------|
B-|--------------------------------|
G-|--------------------------------|
D-|-----2------------7-7-7-7-7-5-7-|
A-|-2-3---5-3-5-3-2--7-7-7-7-7-5-7-|
E-|------------------5-5-5-5-5-3-5-|






Versão 2:

Intro:
    Em		     	  s	         C		 D     B
D --2------------------------------------5-5-5-5-5-5-5-5-7-7-7-4--(4)--------
A --2--7----7------------------7----7----3-3-3-3-3-3-3-3-5-5-5-2--(2)--------
E --0-----0---0-8--8-5-3-3/5-0----0---0---------------------------------3-2--

Riff1		       	  s
D --------------------------------------------------
A -----7----7------------------7----7--------------- Repete 2x
E --0-----0---0-8--8-5-3-3/5-0----0---0-8--8-5-3-2--

   A
D ----------------------------
A -7-7-7-7-7-7-7-7-7-7-7-7-7--
E -5-5-5-5-5-5-5-5-5-5-5-5-5--

     C5        B5     A5                    C5         B5     A5
Você pode até achar tudo normal  Só que não é bem assim
  C5     B5  A5                     C5  B5      A5
O que parece bom pra você  Pode não parecer pra mim
     G5          A5         G5          A5
Você fala em sanidade  Como quem pode fazer
     G5               A5               F5             G5       D5
Você tenta falar a verdade  Só que não tem nada pra dizer

C5    B5    A5           C5        B5  A5 
Suas idéias doentias  Um dia te destruirão
C5           B5    A5              C5          B5     A5
Eu vou ver o seu império cair  e sorrir sem nenhum perdão
 G5                A5           G5            A5
Achou que podia me humilhar por trás de uma razão
      G5              A5            F5                G5
Uma razão que um dia acaba quando O poder sai de suas mãos
  A5         C5 A5 G5 F5   
Você não sabe o que dizer - não sabe o que dizer (3x)
                G5       D5
Só me resta esperar

Solo:
    s                     s                     s
e -------------------------------------------------------------------------
B ---------------------------------------------8/10-10-10-8----8-----------
G --------------------------------------7-9-9~--------------10---10-9-7----
D -------------------------------7-9-10------------------------------------
A ---------------------------7-8-------------------------------------------
E ---0-5--5-7-8-7-5-7-5-3/5-----------------------------------------------

                  s                               s
e -------------------------------------------------------------------------
B -------------------------------------------------------------------------
G -------------------------------------------------------------------------
D --10-9--10-9-5-5/7---7-9-10-9--------------------------------------------
A ------------------------------10-7-------------------------5-7-----------
E -----------------------------------8-7-7h8-7-3-3/5---5-7-8-----7--8--10--

Final:
D --------------------------------
A --3-5-7-5-3-5-3-2--0-0-3-0-5-7--
E ---------------------------3-5--

Acordes utilizados:
   C5  B5  A5  G5  F5  D5
e ---- --- --- --- --- ---
B ---- --- --- --- --- ---
G ---- --- --- --- --- -7-
D -10- -9- -7- -5- -3- -7-
A -10- -9- -7- -5- -3- -5-
E -8-- -7- -5- -3- -1- ---

----------------------------------------------------------
 Aê galera... essa é a tablatura de Sanidade (completa!!) 
 Alguma dúvida, sugestão, crítica ou se você achou alguma 
      coisa errada na tablatura me mandem um e-mail       
           Valew... Alysson Vinícius - CAETÉ/MG            
               [email protected]               
                 www.raimundosmg.cjb.net                  
----------------------------------------------------------





Quer fazer uma correção nesta cifra?







    Comentários (0) Postar um Comentário

    Nenhum comentário encontrado. Seja o primeiro!