Cifra da música: Pompem - Raimundos

Esse cifra de Raimundos já foi acessado por 615 pessoas.

Comente

A música Pompem fez muito sucesso quando foi gravada por Raimundos. Quer conhecer a letra dela? Veja a letra de Pompem e cante.

Veja também o vídeo da música tocada.


Intro:
 
e-|-------------------------------------------------------------------|                  
B-|-------------------------------------------------------------------|
G-|-------------------------------------------------------------------|
D-|-------------------------------------------------------------------|
A-|-------------------------------------------------------------------|
E-|0--3-3---4-4---5-5---------0-0-0-0-0-0-----------------------------|
         7 vezes                    P.M.
         



 Riff1:
 
e-|-------------------------------------------------------------------|                  
B-|-------------------------------------------------------------------|
G-|-------------------------------------------------------------------|
D-|-----------------------------(7)-----------------------------------|
A-|-----------------------------(7)-----------------------------------|
E-|0-0-0---8-8-8-8---7/3-3-4----(5)-----------------------------------|
            3 Vezes
    /===> Na terceira vez toque isso várias vezes!

 Riff2:

e-|-------------------------------------------------------------------|                  
B-|-------------------------------------------------------------------|
G-|-------------------------------------------------------------------|
D-|-------------------------------------------------------------------|
A-|-------------------------------------------------------------------|
E-|8-7/2--3-2-2-0----------(2)--(5)-----------------------------------|
                       /======> Toque isso apenas no refrão e na última vez!


 Intro + Riff1

 A                    B             C   ======> Toque sempre meio abafando!
 Menininha da cidade foi pro mato e adorou
    A             B            C
 Tanta variedade de cobra, que apaixonou
   A                   B          C
 Agora ela é viciada, sorriso de orelha a orelha
   A                  B          C
 Atrás da bicharada, vive trepando nas telhas
 
  
     Riff2

 A
 Menininha da cidade foi pro mato e se soltou

 Levou tanta picada, ficou cheia de calor

 A noite ela abre a janela que é pra mosquitada entrar

 A gente morde nela e ela coça devagar



             |Mais alto - eu vou subirm vamos lá!
             |
             |Mais alto - eu sou baixinho! Que é que há?
  Riff2 3X   |
             |Mais alto - Ela gritava mais alto e raca-raca
             |Ia relando no asfalto



             |Mais baixo - ia gemendo mais baixo
             |
             |Mais baixo - o buraquinho é mais embaixo
  Riff2 3X   |
             |Mais baixo - ia botando para baixo. Eu digo:
             |
             |Eita diacho! Ela é feia mas eu sou macho



             | Entra na peia. Ajoelhou, vai ter que rezar        
  Riff1 2X   |
  (REFRÃO)   | Deita na teia, aranha malvada, que vai me devorar


  

 A                    B             C
 Menininha da cidade foi pro mato e se mudou
    A                       B               C
 Casou com um borrachudo que desde o nome ela gostou
    A                    B            C
 Caiçara da mais doida, dos cabelo cheio de nó
    A                     B             C
 Trocou a vida moderna e não larga mais do cipó



  G             A#     G#    B     G      A#       G#
 Se eu fosse um mosquitinho ia te chupar todo dia
       G       A#     G#   B   G     A#    G#    B
 Ia te morder com carinho e nadar na molhadinha
    C         D#     C#    E        C  D#   C#   E
 E na noite em que você, dormisse, só de calcinha
       C     D#   C#    E     C     D#    C#      E
 Ia pegar na dobrinha onde a carne é bem mais macia


  

  REFRÃO


Riff final:

      e-|-----------------------------------------------------------------|                  
      B-|-----------------------------------------------------------------|
      G-|-----------------------------------------------------------------|
      D-|---------------------------2-------------------------------------|
      A-|---------------------------2-------------------------------------|
      E-|8-7/2--3-2-2-0-------------0-------------------------------------|



Quer fazer uma correção nesta cifra?







    Comentários (0) Postar um Comentário

    Nenhum comentário encontrado. Seja o primeiro!