Cifra da música: Pegamutukalá - part. esp. de Mr. Catra - Raimundos

Esse cifra de Raimundos já foi acessado por 555 pessoas.

Comente

A música Pegamutukalá - part. esp. de Mr. Catra fez muito sucesso quando foi gravada por Raimundos. Quer conhecer as demais músicas? Conheça as letras das músicas gravadas por Raimundos e aproveite.


Afinar 6º corda em D(Ré)

Baixo  D|--0--0-0-7-5-5-3--3-3-5-3-7--|  fica a música inteira assim.
 


Intro
e|--5~----5----------|
B|--6~----6-----10~--|
G|--7~----7---7------|
D|--7~----7----------|
A|--5~---------------|
D|--0~---------------|
  

Riff1
   Dm             F 
e|--------------------------------|
B|---------------------6-------6--|
G|------7------7-------5-------5--|
D|------7------7---3-3-3---3-3-3--|
A|--5-5-5--5-5-5------------------|
D|--------------------------------|
  
 
Riff2
e|--------------------------------------------|
B|--------------------------------------------|
G|--3-3-3-3-3-3-3-3—--10-10--9-9-9-9-9-9-9-9--|
D|--3-3-3-3-3-3-3-3---10-10--9-9-9-9-9-9-9-9--|
A|--5-5-5-5-5-5-5-5---8--8---7-7-7-7-7-7-7-7--|
D|--------------------------------------------|
   
Riff3
e|-----------------------------------------|
B|-----------------------------------------|
G|-----------------------------------------|
D|-----------1-0-1-0-----------------------|
A|--0-0-0-0-------------3-3-3-3--5-5--7-7--|
D|--0-0-0-0-------------3-3-3-3--5-5--7-7--|
   |-------3x-------|

(Riff1)
Carona de ouvido Eu não quero revidar Pega onda não rabeia
Deixa essa merreca lá Cerimônia busca a pé Dá um jeito de solver
Circula todo sangue Não deixa mais ele escorrer Encontrei um novo pico Todo dia eu tô lá
Só de ver já me instiga Boto o bico pra rasgar Sem miséria essa preza
Não é oferta pra você E quando tu quiser Você pode ir lá me ver

Riff de passagem
e|--------3----------------|
B|--3-5-6---3—--3-3-5-6-3--|
G|-------------------------|
D|-------------------------|
A|-------------------------|
D|-------------------------|

(Riff2)
Chove muito forte Eu tô dentro E tô contente Fiz um corte na parede
E botei o pé na frente O forte é a amizade E o cansaço é que detona
A bateria recarrega O periscópio veio à tona Não depende de você
Que faz o bonde andar Porque sem motor e roda Não adianta empurrar
O vento não é fraco E decolar sem rabiola Levantar desgovernado
Jararaca deita e rola 
(Riff1)
Refrão
Òh! Oh! Oh! Oh! Oh!
Cadê o isqueiro
Demorô formar
O bonde dos ...

(Riff3)
Hey! Hey! Hey!
Pegamutukalá

(Riff1)
Eu dô 1, 2, 1, 2, 1 E não consigo encontrar problema algum Não sei porque
Isso é proibido e Se você não concordar comigo Por favor amigo, me diga o motivo
É triste saber Que o homem não pode fazer O que ele quiser e o que ele bem entender
É tempo de parar e analisar Regras que a sociedade lhe injeta E você não para pra pensar

(Riff2)
Só concorda e não tem própria opinião Se você é mais um desses
Me escuta, presta atenção Uma coisa me deixa um tanto quanto puto
Das pessoas que tem a velha opinião Formada sobre tudo
Aceita o que é imposto e não tem um ideal 
Caia na real, caia na real
Caia na real, caia na real
Caia na real, caia na real

Refrão 2 vezes

(Riff3)
Pode vir quem for da lei Tu pensa que eu não sei Peçonhenta dá o bote
Mas eu sempre esquivei Passei por cada uma Muita história pra contar
Sabe a mesa do tenente? Já deixei mutuca lá Perdi até as contas
De tanto que engoli Uma grande quantidade Já me deu um piriri
Cadê aquela ingrata Que ficou com meu finim Saiu pela tangente
Sorrateira e de mansim  

(Intro)(Riff1+Riff5)

Riff5
e|----4-5-4--|
B|--3--------|
G|-----------|
D|-----------|
A|-----------|
D|-----------|

Refrão

(Riff3)
Pegamutukalá, pegamutukalá
Pegamutukalá, pegamutukalá

Quer fazer uma correção nesta cifra?







    Comentários (0) Postar um Comentário

    Nenhum comentário encontrado. Seja o primeiro!