Cifra da música: Mato Véio - Raimundos

Esse cifra de Raimundos já foi acessado por 670 pessoas.

Comente

A música Mato Véio fez muito sucesso quando foi gravada por Raimundos. Quer conhecer a letra dela? Veja a letra de Mato Véio e cante.

Veja também o vídeo da música tocada.


Tom: C
E----------------------------|
B----------------------------|Intro 
G----------------------------|
D-----------5----------------|OBS:Tocar até'.desempenho bem.'  
A--0-2-3-2--5----------------|
E-----------3----------------|

E quase mato o véi! Deu uma cãimbra no coração Quando ela apereceu ao vivo, 
ao meio-dia que rabão e quase mato o véi quando olhou ao seu redor 
ficou de cara, sua mulher toda lorinha desempenho bem melhor. 

C                         E(7/9)
Vendeu o furo pra televisão
C                       E(7/9)
Tv a rabo aqui só no botão
C                         G
Se ela não parar o Zé sem osso vai estorar 
D                          A
Descer é o ponto que me faz subir
E(7/9)                     G
Venham ver o show desça menina
A(12/14)                   F(8/10)
Gostei vou comprar uma pra mim
D                     F(8/10)                  A
De bunda grande, inteligente e que tenha vermelho na véia
D                F(8/10)      A E(7/9) A           G
Que durma tarde, acorde tarde é muito mais que eu pedi
D               F(8/10)               A E A                 G
É muito areia, é verdade que ela morde é muito mais que eu pedi

E----------------------------------|
B----------------------------------|
G----------------------------------|
D-----------------------------5----|
A--0-2-3-2----2-3-2----2-3-2--5----|
E-----------3--------3--------3----|

Intro

Naquela noite então foi que o véio teve a visão escravizar umas danadas e formar uma curriola
Se rasgando até o chão me dá um tanto aí e tu aparece uma vez
agora me dá logo a grana e eu prometo só vai dar vocês.

Solo:
e-------------------------------------------------------------------------------
B-5--3----------------------------5-------5--3------------------------8b-5------
G------5--4-5-7-5-4-5-7-5-4-5/7-7--7-5-4------5--7-7/9-9-10-9-9-7-9-7------7/0--
D---------------------------------------5---------------------------------------
A-------------------------------------------------------------------------------
E-------------------------------------------------------------------------------

A
na véia
D                F(8/10)      A E(7/9) A           G
Que durma tarde, acorde tarde é muito mais que eu pedi(2x)
D               F(8/10)               A E A         
É muito areia, é verdade que ela morde é muito mais 

E----------------------------------|
B----------------------------------|
G----------------------------------|
D-----------------------------5----|
A--0-2-3-2----2-3-2----2-3-2--5----|
E-----------3--------3--------3----|


___________________________________________________________


Quer fazer uma correção nesta cifra?







    Comentários (0) Postar um Comentário

    Nenhum comentário encontrado. Seja o primeiro!