Cifra da música: Mas Vó - Raimundos

Esse cifra de Raimundos já foi acessado por 732 pessoas.

Comente

A música Mas Vó fez muito sucesso quando foi gravada por Raimundos. Quer conhecer a letra dela? Veja a letra de Mas Vó e cante.

Veja também o vídeo da música tocada.


INTRO.: (G D D# G)3x  D D# C

RIFF1
E|-------------------------
B|---------3---------------
G|-------3-----------3---3-
D|-----5---------5-----5---
A|---5---------5---5-------
E|-3---------3-------------

RIFF2
E|----------------------------------------------------------------------------------------------------------------
B|----------------------------------------------------------------------------------------------------------------
G|----------------------------------------------------------------------------------------------------------------
D|-5-5-5-5-5-------------------5-5-5-5-5--------------------5-5-5-5-5-------------------5-5-5-5-5---4/5-5-5-5-5---
A|-----------5-5-5/6-6-6-0-3-3------------5-5-5/6-6-6-0-3-3-----------5-5-5/6-6-6-5-6-6-----------5-------------5-
E|----------------------------------------------------------------------------------------------------------------


RIFF3
E|-------------------------------------
B|---------3-------------------------3-
G|-------3-----------3---3---------3---
D|-----5---------5-----5---------5-----    G
A|---5---------5---5-----------5-------
E|-3---------3---------------3---------

RIFF1 4x

RIFF1 4x
Apesar de tanto tempo pra encontrar a paz
Coitado do homem no caminho ele tropeça demais
Olhem e vejam só o que foi que ele fez, coitado do homem no caminho
Tropeçou mais uma vez, esse coitado para encontrar a paz
Tropeça, cai de queixo, já nem olha para tras
Já perdeu as contas que o sistema fez
Se julga o super-homem e tropeçou mais uma vez

RIFF2 2x
Apesar de tanto tempo pra chegar à lua
É tanta miséria e fome o pesadelo é que a vida continua
Esse coitado pra encontrar a paz
Coitado do homem no caminho ele tropeça...
Apesar de tanto tempo pra chegar à lua
É tanta miséria e fome o pesadelo é que a vida continua
Esse coitado pra encontrar a paz
Coitado do homem no caminho ele tropeça...

Refrão

G		      D       D#	    G
Só que em pingo d'água ninguém nunca deu um nó
G                       D    D#		 G
Surdo é cego dos ouvido já dizia minha avó
G		 D     D#	      G
Se algo deu errado, não é tão ruim assim
   D
Se ainda não deu certo
 D#	  C		    G
É por que não chegou no fim 

RIFF3

RIFF2 2x
Mas vó o mundo anda cheio de cabra safado
Tirador de onda, atrasador de lado
Com sede de sangue, fama e poder 
Em vez de ajudar ele atrapalha você
Assim que a gente cai
E pede pra ajudar 
Ele te estende a mão
Só pra empurrar!
Com sede de sangue, fama e poder 
Em vez de ajudar ele atrapalha


G			D
Mas muleque fique esperto
D#	       G
Não vá se igualar
G			D    D#		 G
Essa gente tão perversa pode te contaminar
G            D  D#	   G
E essa maldade te fazer ruim
D
Cuidado fique esperto
D#	   C
Que ainda não chegou no fim


REFRÃO


BASE DO SOLO 
RIFF2 1x   depois o riff2 é feito somente pelo baixo, em seguida a guitarra base faz (G D D# G D D# C) 2x


G		      D       D#	    G
Só que em pingo d'água ninguém nunca deu um nó
     D                   D#  C		 
Surdo é cego dos ouvido já dizia minha avó
G		 D     D#	      G
Se algo deu errado, não é tão ruim assim
   D
Se ainda não deu certo
 D#	  C		    G
É por que não chegou no fim 

______________________________________________


Quer fazer uma correção nesta cifra?







    Comentários (0) Postar um Comentário

    Nenhum comentário encontrado. Seja o primeiro!