Cifra da música: Kavookavala - partic. espec. de Derek - Raimundos

Esse cifra de Raimundos já foi acessado por 438 pessoas.

Comente

A música Kavookavala - partic. espec. de Derek fez muito sucesso quando foi gravada por Raimundos. Quer conhecer as demais músicas? Conheça as letras das músicas gravadas por Raimundos e aproveite.


Afinar 6º corda em Ré( D ).

Vooka..vooka
E|-----------------------------|-----------------------------|
B|-----------------------------|-----------------------------|
G|-----------------------------|-----------------------------|
D|-----------------------------|-----------------------------|
A|--5-5-5-5...-7-8-2-2-2-2...--|--0-0-0-0-0-0-0-0-0-0...-0~--|
D|-----------------------------|--0-0-0-0-0-0-0-0-0-0...—0~--|
    |---------2x------------|                            Kavookavala!!!

 
Intro
E|------------------------|
B|--------------------3~--|
G|--------------------2~--|
D|--------------------0~--|
A|--3/0-3/0-3/0--0-0------|
D|--3/0-3/0-3/0--0-0------|

Riff1
E|----------------------------------|
B|----------------------------------|
G|----------------------------------|
D|--------------3-------------------|
A|----5---5---5-----5---5---5--3----|
D|--0---0---0-----0---0---0------0--|
   |------3x-----|
 

Riff2
E|--------------------------------|
B|--------------------------------|
G|--------------------------------|
D|----------------------------3^--|
A|----5--5--5--5--5--5--5--5------|
D|--0--0--0--0--0--0--0--0--------|

Riff3
E|---------------------------------|
B|---------------------------------|
G|---------------------------------|
D|---------------------------------|
A|--0-0—4/5-5-5--4/5-5-5--4/5-5-5--|
D|--0-0----------------------------|

Riff4
E|-------------------------------|
B|-------------------------------|
G|-------------------------------|
D|-------------------------------|
A|--0-5/3-0~--5-0-5--7-0-7-7-7~--|
D|--0-5/3—0~-—5-0-5--7-0-7-7-7~--|
 

Riff5
E|--------------------|
B|----3~--------------|
G|----2~--------------|
D|----0~--------------|
A|--0----3/0-3/0-3/0--|
D|--0----3/0-3/0-3/0--|


Riff6
E|------------------|
B|------------------|
G|------------------|
D|-------------5-5--|
A|----5-5/3----3-3--|
D|--0--------0------|
  |---3x---|
 


 
Riff1
Certa feita na fazenda O sinistro fez visita Mutilando o meu rebanho
De forma esquisita Procurei por toda parte Respostas encontrar 
Mas ninguém me disse nada Que eu pudesse acreditar Esse povo é muito doido
Já inventaram a nova praga O motivo da minha ira Era um tal kavookavala
Todo mundo que o viu Fosse mouro ou cristão Disse que não resistiu
E se mudou da região 

Riff2
Até timbó mané Cara que nunca pede arrego Ao deparar-se com o bisonho 
Se desmaiou de medo Não podia ser verdade Seria feio assim? 
Disseram que por onde andava Nem crescia mais capim Não sou homi de loucura
Nem de briga ou me vingar Dei um berro em minha fúria 
Esse bicho eu vou pegar Sem conversa fiada Fiz promessa de homi 
Que esse bicho eu não pegasse Eu trocaria até de nome 

Riff3

Riff4
O que? 
Sem medo e nem frescura Fui caçar o bicho no mato 
Ahn?! 
Sem esquecer da minha garrucha Provisões e um bom casaco 
O que?! 
Passei noites em vão Muito frio e escuridão 
Hein?! 
Entretanto aquela noite Eu também vi a aberração 
Aaahh..mintchira!

Riff5

Riff1
Será o filho do capeta Tão horrível a besta-fera Deve ser de
outro planeta Pois da terra é que não era Pra parar com a
bagaceira Só garrucha até no talo Mirei mira certeira
Preparando o meu disparo Pra dar o tiro certo Com toda precisão
Atiro entre uma batida e outra Do meu coração
Mas será o Benedito?!! Muito fraco espirrei Que espirro véi maldito 
E o meu tiro eu errei

Riff6
Com o barulho do pipoco Urrou a aberração E veio feito louca
Na minha direção Chegou a minha hora E é agora que eu tô frito
Queria ver a minha cara Quando eu dei aquele grito...
Berrei um som do inferno Bem mais feio que de um cão
Assustado com meu berro Ele morreu do coração A cabeça decepei
O corpo eu dei pra nasa Não pôs fé no que eu contei?
Vem ver o crânio Tá lá em casa

Riff4
O que?!
O couro esfolei Deu um trabalho do cacete
Ahn?!
Deixei secar no sol E hoje uso de tapete

O que?!
E na praça da cidade Mil estátuas colocadas
Hein?!
E embaixo está escrito Que eu matei o Kavookavala
Aaahh..mintchira!

Vooka..vooka

Riff7         Base do Solo:
E|------------|---------------------------|
B|------------|---------------------------|
G|------------|---------------------------|
D|------------|---------------------------|
A|--5-3-0...--|--5-3-0----7-5-0-----------|
D|------------|--------------------5-3-0--|
 
                |--8x--| |--4x--| |--4x--|
 
              |-------------2X------------|
Riff5
 

Final
E|------------------|
B|------------------|
G|------------------|
D|--3-0---5-0---3~--|
A|------3-----3-----|
D|------------------|


Quer fazer uma correção nesta cifra?







    Comentários (0) Postar um Comentário

    Nenhum comentário encontrado. Seja o primeiro!